Sem imagem

Eye Of The Tiger

Survivor

7.971 exibições
Tom: Cm
 

Riff1 Palm mute
 all the time
e-----------------
B-----------------
G-----------------
D-----------------
A-3-3-3-3-3-3-3-3-
E-----------------
Riff2 Intro
e-------------------------------------------------
B-------------------------------------------------
G-5-----5---3---5-----5---3---5------5------------
D-5-----5---3---5-----5---3---5------5---5---6----
A-3-----3---1---3-----3---1---3------3---5---6----
E----------------------------------------3---4----
  C5    /   Bb5 C5    /   Bb5 C5     /   G5 Ab5  
Riff3 Before verse
e-----------------------------------------------
B------4--3--4~------4--3--4~-------------------
G------3--3--3-------3--3--3------5---3---1-----
D-5-------------------------------5---3---1-----
A-3---------------------------------------------
E-----------------------------------------------
  C5                              C5  Bb5 Ab5 
Riff4 End of intro
e---------
B---------
G---------
D--10\6---
A--10\6---
E--8-\4---
[Intro]
Riff1   Riff1   Riff1   Riff1
C5   C5 Bb5 C5   C5 Bb5 C5    C5 G5 Ab5 
C5   C5 Bb5 C5    C5 Bb5 C5    C5 G5 Ab5 
C5                            C5  Bb5 Ab5
C5                            C5  Bb5 Ab5
Riff4
[Verse] (guitar play Riff1; chords played by piano/keyboard)
Cm          Ab 
Risin' up_, back on the street__
Bb                    Cm
Did my time_, took my chan_ces_
Cm                           Ab
Went the dis_tance_, now I'm back_ on my feet_
       Bb                   Cm
Just a man_ and his will to survive_
Cm                 Ab
So many times_, it happens too fast__
Bb                         Cm 
You trade your passion for glory_
Cm                             Ab
Don't lose your grip__  on the dreams of the past_
         Bb                        Cm 
You must fight_ just to keep them alive___
[Chorus]
            Fm                            Eb5            Bb5
It's the_   eye_ of the ti_ger_, it's the thrill_ of the fight_
        Fm                           C5  Bb5
Ri_sin' up_ to the challenge_ of our ri__val__
        Fm                                 Eb5         Bb
And the last__  known survivor_ stalks his prey in the night
         Fm          Gm          Ab (&Riff5)         (&Riff1)
And he's watchin' us all_ in the eye____       of the tiger
Riff5 Chorus end 'Watching us..' 
e---------------------
B---------------------
G---------------------
D---------------------
A--8-6-8-10-8-10-11~--
E---------------------
   Fm    Gm      Ab
Riff6 Verse (Face to face..)
e-----------------------------------
B--4~---/---1~---\----3~---/---4~---
G--5~---/---1~---\----3~---/---5~---
D-----------------------------------
A-----------------------------------
E-----------------------------------
   Cm       Ab        Bb       Cm
[Verse] (Guitar Riff1 & Riff6)
Cm             Ab
Face to face_, out in the heat_
Bb                     Cm
Hangin' tough, stayin' hun_gry_
Cm                            Ab
They stack the odds__ 'til we take to the street_
       Bb                          Cm
For we kill_ with the skill_ to survive___
[Repeat Chorus]
Riff1
[Verse] (guitar rests 2 lines; chords played by piano/keyboard)
Cm          Ab 
Risin' up_, straight to the top__
Bb                     Cm
Had the guts_, got the glo_ry_
Cm                           Ab
Went the dis_tance_, now I'm not_ gonna stop_
       Bb                   Cm
Just a man_ and his will to survive_
[Chorus]
            Fm                            Eb5            Bb5
It's the_   eye_ of the ti_ger_, it's the thrill_ of the fight_
        Fm                           C5  Bb5
Ri_sin' up_ to the challenge_ of our ri__val__
        Fm                                 Eb5         Bb
And the last__  known survivor_ stalks his prey in the night
         Fm          Gm          Ab (&Riff5)         (&Riff1)
And he's watchin' us all_ in the eye____       of the tiger
Riff1
[Repeat Intro]
C5   C5 Bb5 C5   C5 Bb5 C5    C5 G5 Ab5 
                                       The eye of the tiger
C5   C5 Bb5 C5   C5 Bb5 C5    C5 G5 Ab5 
                                       The eye of the tiger
C5   C5 Bb5 C5   C5 Bb5 C5    C5 G5 Ab5   (&Riff3)
                                       The eye of the tiger
C5   C5 Bb5 C5   C5 Bb5 C5    C5 G5 Ab5   (&Riff3)
                                       The eye of the tiger
Fade out..


Enviada por Sem inscrição
Nº de acordes: 10