Simple Plan

Perfect

Simple Plan

34.376 exibições
(afinação 1/2 tom abaixo)

Tom: E

Intro: 
E|------------------------------------------------------------------------|
B|------------------------------------------------------------------------|
G|-9---8--9---------9---8--11---------------------------------------------|
D|-9---9--9-7---6---9---9--9 -7---6---------------------------------------|
A|-7---7--7-7-----7-7---7--7 -7-----7-------------------------------------|
E|----------5-----------------5-------------------------------------------|

Riff
E|------------------------------------------------------------------------|
B|------------------------------------------------------------------------| 
G|---9/11--11-11-11---14-14/13-13-----------------------------------------| x4 
D|---x/x-- x -x--x---- x- x/x-- x-----------------------------------------|
A|---7/9---9--9--9----12-12/11-11-----------------------------------------|
E|------------------------------------------------------------------------|

Verso1:
E
Hey dad look at me
A
Think back and talk to me
      E                    A  
Did I grow up according to plan?
           E                         A 
And do you think I'm wasting my time doing things I wanna do?
       E                              A
But it hurts when you disapprove all along

Ponte:
F#m
And now I try hard to make it
A                     E 
I just want to make you proud
E                                  F#m
I'm never gonna be good enough for you
                          A
I can't pretend that I'm alright
     A
And you can't change me

Refrão:
       E
Cos we lost it all 
        B
Nothing lasts forever
    C#m
I'm sorry 
           A
I can't be perfect
         E
Now it's just too late and 
   B  
We can't go back
    C#m
I'm sorry 
           A
I can't be perfect

Riff

Verso2:
E
I try not to think
A
About the pain I feel inside
E                              A
Did you know you used to be my hero?
E
All the days you spend with me
A
Now seem so far away
       E                            A
And it feels like you don't care anymore

Ponte:
    F#m
And now I try hard to make it 
A                    E
I just want to make you proud 
                                  F#m
I'm never gonna be good enough for you
                      A
I can't stand another fight
     A
And nothing's alright

Refrão

Final:
C#m              B           A                   C#m E
Nothing's gonna change the things that you said
C#m              B         A          C#m E
Nothing's gonna make this right again
C#m
Please don't turn your back
B                 
I can't believe it's hard
        A
Just to talk to you
    
But you don't understand.


Refrão



Enviada por Sem inscrição
Nº de acordes: 5