Shinedown

Simple Man

Shinedown

6.314 exibições
Tom: C

Intro: 
      C             G             Am     G   Am
e---------------------------------0------3---0------
B-----------1-----1---------------1------3---1------
G---------0---0-----------0-----0-2------0---2------
D-------2-------2-------0---0-----2------0---2------
A-0-2-3---------------2-------2---0------2---0------
E-------------------3--------------------3----------

Versos:
      C               G                
e---------------------------------------------------
B-------------1-----1-------------------------------
G---------0-----0-----------0-----0-----------------
D-------2---2-----2-------0---0---------------------
A-0-2-3-----------------2-------2-------------------
E---------------------3-----------------------------

  Am             
e-------------------3-------------------------------
B-------1-----1-------1-----------------------------
G-----2---2-----2-----------------------------------
D---2-------2-----2---------------------------------
A-0-------------------------------------------------
E---------------------------------------------------

Verso 1:
      C     G            Am         
Mama told me when I was young
       C           G          Am 
Said: sit beside me, my only son
             C    G        Am 
And listen closely to what I say.
            C          
And if you do this
         G        Am    
It will help you some sunny day.

Verso 2:
               C     G            Am
Oh, take your time... Don`t live too fast,
               C  G          Am
Troubles will come and they will pass.
               C   G            Am
You?ll find a woman and you`ll find love,
              C     
And don`t forget that,
          G         Am     G  Am
There is someone up above.

Refrão:
          C   G      Am
And be a simple kind of man.
    C    G                Am
Be something you love and understand.
            C   G      Am
Baby, be a simple kind of man.
           C              G
Won`t you do this for me son,
        Am
If you can?

Verso 3:
             C  G                Am  
Forget your lust for rich man`s gold
              C    G               Am  
All that you need now, is in your soul,
             C           G             Am  
And you can do this, oh baby, if you try.
            C                G
All that I want from you my son,
       Am   G    Am
Is to be   satisfied.

Refrão:
          C   G      Am
And be a simple kind of man.
    C    G                Am
Be something you love and understand.
            C   G      Am
Baby, be a simple kind of man.
           C              G
Won`t you do this for me son,
        Am
If you can?

Verso 4:
               C  G                 Am  
Oh, don`t you worry... you`ll find yourself.
            C   G            Am  
Follow you heart and nothing else.
             C           G             Am  
And you can do this, oh baby, if you try.
        C               G
All I want from you my son,
       Am   G    Am
Is to be   satisfied.

Refrão:
          C   G      Am
And be a simple kind of man.
    C    G                Am
Be something you love and understand.
            C   G      Am
Baby, be a simple kind of man.
           C              G
Won`t you do this for me son,
        Am
If you can?
              C   G
So baby be a simple,
             Am
Be a simple man. 
           C          G
Won`t you do this for me son,
        Am
If you can?


Enviada por Sem inscrição
Correção por equipepegacifras
Nº de acordes: 3