Scorpions

Still Loving You

Scorpions

14.397 exibições
Intro: 
  Gm       Gm/F     Gm/Eb             A#6            D7                       
:---6--------6--------6------9-8-6--------6------------5--------------------:
:-----8--------8--------8----------8--------8-------7-----7-----------------:
:-------7--------7--------7-------------------7-----5-------5---------------:
:-0------------------------------------8--------8---7---------7-------------:
:----------8--------6------------------6------------5-----------------------:
:---------------------------------------------------------------------------:
 
  Gm       Gm/F     Gm/Eb              A#6           D7                       
:---6--------6--------6------9-8-6--------6------------5--------------------:
:-----8--------8--------8----------8--------8-------7-----7-----------------:
:-------7--------7--------7-------------------7-----5-------5---------------:
:-0------------------------------------8--------8---7-----------------------:
:----------8--------6------------------6------------5-----------------------:
:---------------------------------------------------------------------------:
                                                                              
  Gm                                                                         
:---6-----6-----6--:---6-----6-----6-:---6-----6-----6-:---6-----6------6---:
:-----8-----8------:-----8-----8-----:-----8-----8-----:-----8-----8--------:
:-------7-----7----:-------7-----7---:-------7-----7---:-------7-----7------:
:-0----------------:-0---------------:-0---------------:-0------------------:
:------------------:-----------------:-----------------:--------------------:
:------------------:-----------------:-----------------:--------------------:  
  Time, it needs time                  To win back your love again. I will be
                                                                              
  A                                    D                                     
:---9-----9-----9--:----9-----9----9-:---2-----2-----2-:---2-----2-----2----:
:-----10----10-----:------10---10----:-----3-----3-----:-----3-----3--------:
:-9-----9-----9----:--------9-----9--:-------2-----2---:-------2-----2------:
:------------------:-11--------------:-0---------------:-0------------------:
:------------------:-----------------:-----------------:--------------------:
:------------------:-----------------:-----------------:--------------------:
  there,                     I will be there.  

  Gm                                                                         
:---6-----6-----6--:---6-----6-----6-:---6-----6-----6-:---6-----6------6---:
:-----8-----8------:-----8-----8-----:-----8-----8-----:-----8-----8--------:
:-------7-----7----:-------7-----7---:-------7-----7---:-------7-----7------:
:-0----------------:-0---------------:-0---------------:-0------------------:
:------------------:-----------------:-----------------:--------------------:
:------------------:-----------------:-----------------:--------------------:
  Love, only love                      Can bring back your love someday.  I will be
                                                                              
  A                                    D                                     
:---9-----9-----9--:----9-----9----9-:---2-----2-----2-:---2-----2-----2----:
:-----10---10------:------10---10----:-----3-----3-----:-----3-----3--------:
:-9-----9-----9----:--------9-----9--:-------2-----2---:-------2-----2------:
:------------------:-11--------------:-0---------------:-0------------------:
:------------------:-----------------:-----------------:--------------------:
:------------------:-----------------:-----------------:--------------------:
  there,                     I will be there.  

  [Solo 1]

:---------------------------------------------------------------------------:
:---------------------------------------------------------------------------:
:------2h3-5-----3p2-3--3p2-2b(3)-2------2--3--5--3--5--^^^^^^^^-7----------:
:-3/5--------------------------------5------------------slowly--------------:
:---------------------------------------------------------------------------:
:---------------------------------------------------------------------------:
                                                                         
:------------------------------------13-13b15------------------------:
:-------10h11-13---11p10-11------11-----------13b15r13-11-13^^^^15---:
:-10/12----------------------12-----------------------------slowly---:
:--------------------------------------------------------------------:
:--------------------------------------------------------------------:
:--------------------------------------------------------------------: 

 Gm                                 :
Fight, babe, I'll fight             :
To win back your love again.        :   
          A                  D      :
I will be there, I will be there.   :  (Dedilhado como na primeira estrofe)
Gm                                  :
Love, only love                     :
Can break down the walls someday.   :
          A                  D      :
I will be there, I will be there.   :

Gm     Eb  
If we'd go again  
   Bb                 F 
All the way from the start.  
 Gm      Eb 
I would try to change  
   Bb                       F    
The things that killed our love.  
   Gm          Cm                  D 
Your pride has build a wall, so strong  
                Gm 
That I can't get through.  
         Eb 
Is there really no chance  
   F 
To start once again?  
           Gm
I'm loving you.

  Gm       Gm/F     Gm/Eb             A#6            D7                       
:---6--------6--------6------9-8-6--------6------------5--------------------:
:-----8--------8--------8----------8---8----8-------7-----7-----------------:
:-------7--------7--------7------------7------7-----5-------5---------------:
:-0------------------------------------8--------8---7---------7-------------:
:----------8--------6------------------6------------5-----------------------:
:---------------------------------------------------------------------------:

:----------------------------------13-13b15------------------------:
:-------10h11-13---11p10-11-----11----------13b15r13-11-13^^^^15---:
:-10/12----------------------12---------------------------slowly---:
:------------------------------------------------------------------:
:------------------------------------------------------------------:
:------------------------------------------------------------------: 

Gm                                  :
Try, baby try                       :
To trust in my love again.          :
         A                D         :
I will be there, I will be there.   :  (Dedilhado como na primeira estrofe)
Gm                                  :
Love, our love                      :
Just shouldn't be thrown away.      :
         A                D         :
I will be there, I will be there.   :
 
Gm     Eb  
If we'd go again   
 Bb                 F 
All the way from the start.  
 Gm      Eb 
I would try to change  
   Bb                       F    
The things that killed our love.  
   Gm          Cm                  D 
Your pride has build a wall, so strong  
                Gm 
That I can't get through 

         Eb 
Is there really no chance  
   F 
To start once again?  
Gm     Eb  
If we'd go again  
   Bb                F 
All the way from the start.  
 Gm      Eb 
I would try to change  
   Bb                       F    
The things that killed our love.  
   Gm          Cm                  D 
Your pride has build a wall, so strong  
                Gm 
That I can't get through.  
         Eb 
Is there really no chance  
   F 
To start once again?  

F               Gm      Eb         Bb  
I'm still loving you, 
F              Gm       Eb         Bb  
I'm still loving you,  
F               Gm      Eb         Bb 
I'm still loving you, 
F               Gm      Eb         Bb 
I'm still loving you, 
            F 
I need your love.  
               Gm      Eb         Bb  
I'm still loving you. 

licks...

 (versos)                         (refrão)
|---------------|----------------|------------------------|-----------------|
|---------------|---5b(6)r5-3----|------------------------|-(13)r11-10-8-10-|
|---------3-----|---5b(6)r5-3-6~-|----------------3-----h-|-----------------|
|-----3-5---5~~-|----------------|------------3-5---5~~(5)|-----------------|
|-3/5-----------|----------------|------1-3/5-------------|-----------------|
|---------------|----------------|--1-3-------------------|-----------------|

|---------|----20b(22)-20b(22)-20-18-|----------------------------------|
|---------|--------------------------|----------------------------------|
|---------|--------------------------|----------------------------------|
|---------|-5------------------------|--7-5-7--------8------------------|
|--5-3--5-|-3------------------------|--5-3-5--5--3--6-(6)r5b(6)...-----|
|--3-1--3-|--------------------------|---------3--1---------------------|

 Solo Final:

e:-13b(15)~~~13b-10-----13--------------------17-18-20-20b-20b-20-18-20-:
B:------------------13b----13b(15-13)------20---------------------------:
G:----------------------------------------------------------------------:
D:----------------------------------------------------------------------:
A:----------------------------------------------------------------------:
E:----------------------------------------------------------------------:

e:~~~~~~-15-------------------------------------20b-18-20-18-20-20b-20b----:
B:-------18b-------------16b-16~--20-18-20-18~-----------------------------:
G:-----------------14-15---------------------------------------------------:
D:---------------17----------------------------------------------------------:
A:-------------------------------------------------------------------------:
E:-------------------------------------------------------------------------:

e:----15-17-18p17p15-17-18p17p15----------15-17-18p17p15-17-18p17p15-------:
B:--15---------------------------18b~~--16---------------------------18-15-:
G:15----------------------------------15-----------------------------------:
D:-------------------------------------------------------------------------:
A:-------------------------------------------------------------------------:
E:-------------------------------------------------------------------------:

e:------------:-------------:----------:--------------|-20b------------------------:
B:----15-18p15:--18-18-18-18:--15-18p15:--18p16p15-18b|-(20)----15-16-18-16h18p16--:
G:-17b--------:-------------:-17-------:--------------|----------------------------:
D:------------5x------------:----------4x-------------|----------------------------:
A:------------:-------------:----------:--------------|----------------------------:
E:------------:-------------:----------:--------------|----------------------------:
                                                    T      T      T
e:-------------------------------------------------:--:---:--:---:--:----:
B:-15-16-15--------------------------------18------:--:---:--:---:--:----:
G:----------17b-17p15---17p15---17p15---17----17b~~:17:---:15:---:--:----:
D:-------------------17------17------17------------:--7x--:--7x--:17:----:
A:-------------------------------------------------:--:---:--:---:--7x---:
E:-------------------------------------------------:--:---:--:---:--:----:

e:----------------------------------------------------------------------:
B:-18b----------16b-16~--20-17-20-17~-----------------------------------:
G:-----14-15-17------------------------15-14-12----14----12/14-12-12----:
D:----------------------------------------------15----15----------------:
A:----------------------------------------------------------------------:
E:----------------------------------------------------------------------:

e:----------------------------------------------------------------------:
B:15h16p15~--15h16p15~--15h16p15~--15h16p15h16p15h16p15h16p15h16p15-----:
G:----------------------------------------------------------------------:
D:----------------------------------------------------------------------:
A:----------------------------------------------------------------------:
E:----------------------------------------------------------------------:

e:15--------------------------------------------------------------
B:18b-------15---16b-16-20-18-20----------------------------------
G:----16-17-----------------------17-15-14------------12/14-12-12-
D:-----------------------------------------17-16---17-------------
A:-----------------------------------------------------------------
E:-----------------------------------------------------------------


Enviada por Sem inscrição
Nº de acordes: 11