Scorpions

Always Somewhere

Scorpions

5.167 exibições
Tom: C

Intro / Verso:
      C               G             F       A7/4
e-----3------------------3----3----3--0-------0-----
B-------1-----1-----0-----0-----0-------3-------3---
G---------0-----0-----------0-----0-------0-------0-
D-----------2-----2-----------------3-------2-------
A-0-2-3---------------------------------------------
E---------------------3-----------------------------
  
  Am
e---0-----0-----------------------------------------
B-----1-----1---------------------------------------
G-------2-------------------------------------------
D---------------------------------------------------
A-0-------------------------------------------------
E---------------------------------------------------

      C               G             F       A7/4
e-----3------------------3----3----3--0-------0-----
B-------1-----1-----0-----0-----0-------3-------3---
G---------0-----0-----------0-----0-------0-------0-
D-----------2-----2-----------------3-------2-------
A-0-2-3---------------------------------------------
E---------------------3-----------------------------
  
  Am
e---0-----0---------0-----0-------------------------
B-----1-----1---1-----1-----1---1-------------------
G-------2-----2---------2-----2---------------------
D---------------------------------------------------
A-0---------------0---------------------------------
E---------------------------------------------------

Verso 1:
C            G          F    A7/4  Am
  Arrive at seven the place feels good
C            G           Am
  No time to call you today
C          G                F A7/4  Am
  Encore till eleven then Chinese food
C              G      Am
  Back to the hotel again

Ingtervalo:
C  G  F  A7/4 Am
C  G  Am

Verso 2:
C              G          F A7/4      Am
  I call your number the line ain`t free
C            G                Am
  I like to tell you come to me
C             G         F   A7/4          Am
  A night without you seems like a lost dream
C         G                    Am
  Love I can`t tell you how I feel

Refrão:
C         G
  Always somewhere
Am
  Miss you where I`ve been
F          G                 C   G
  I`ll be back to love you again (2x)

(Intro)

Verso 3:
C          G        F  A7/4 Am
  Another morning another place
C           G               Am
  The only day off is far away
C            G        F   A7/4      Am
  But every city has seen me in the end
C             G          Am
  And brings me to you again

Refrão:
C         G
  Always somewhere
Am
  Miss you where I`ve been
F          G                 C   G
  I`ll be back to love you again (2x)

(Intro)


Enviada por Sem inscrição
Correção por equipepegacifras
Nº de acordes: 5