Red Hot Chili Peppers

Californication

Red Hot Chili Peppers

33.030 exibições
Tom: Am
Intro: Am  F  Am  F

Riff Intro:
  
  Am                F
e-----------------------------------------
B-----0-1---------------------------------
G-----------------------0-2---------------
D---2------2-0h2p0-----------0------------
A-0-------------------3--------3----------
E-------------------1---------------------

  Am                F
e----------------------------------------|
B-----0-1--------------------------------|
G-----------------------0-2--------------|
D---2------2-0h2p0-----------3-0---------|
A-0-------------------3------------------|
E-------------------1--------------------|

Verso 1:
Am
Psychic spies from China
       F
Try to steal your mind elation
Am
Little girls from Sweden 
         F
Dream of silver screen quotations
    C                 G
And if you want these kind of dreams 
     F        Dm
It´s Californication

(Riff Intro)

Verso 2:
         Am
It´s the edge of the world
          F
in all of western civilization
Am
The sun may rise in the east
            F
At least it settles in a final location
     C               G
It´s understood that Hollywood
      F        Dm
Sells Californication

Ponte:
Am  F7+
Am  F7+

Am                            F7+
Pay your surgeon very well to break the signs of aging
Am                               F7+
Celebrity skin is this your chin or is it war your waging
Am             F7+
 First born unicorn___
Am               F7+
 Hard core_ soft porn___

Refrão:
C            G    Dm       Am
Dream of Californication
C            G    Dm 
Dream of Californication___

(Riff Intro)

Verso 3: 
Am
Marry me girl - be the fairy to my world
      F
Be my very own constellation
Am
A teenage bride with a baby inside 
        F
Getting high on information
    C                    G
And buy me a star on the boulevard 
     F        Dm
It´s Californication

(Riff Intro)

Verso 4:  
Am
Space may be the final frontier 
         F
But it´s made in a Hollywood basement
Am
and Cobain can you hear the spheres
        F
Singing songs off station to station
    C             G
And Alderon´s not far away
     F        Dm
It´s Californication

Ponte:
Am      F7+ 
(Ooooooooooooooohoooooooooh)
Am      F7+
(Ooooooooooooooohoooooooooh)
Am                                  F7+
Born and raised by those who praise control of population
(Ooooooooooooooohoooooooooh)
Am                           F7+
Everybody´s been there and I don´t_ mean on vacation
(Ooooooooooooooohoooooooooh)
Am             F7+
 First born unicorn___
(Ooooooooooooooohoooooooooh)
Am               F7+
 Hard core_ soft porn___
(Ooooooooooooooohoooooooooh)

Refrão:
C            G    Dm       Am
Dream of Californication
C            G    Dm 
Dream of Californication___ (2x)

Solo:
e|-----9-----------9-----------------
B|--10---7b9r7--10---7b9r7-7-7-7-7-5-
G|-----------------------------------
D|-----------------------------------
A|-----------------------------------
E|-----------------------------------

e------------------------------------
B----------5--7b9r7-7-5--------------
G-6-6--4-6--------------6------------
D------------------------------------
A------------------------------------
E------------------------------------

e----9-12-14~-----9-12-14b16r14------
B-10-----------10--------------------
G------------------------------------
D------------------------------------
A------------------------------------
E------------------------------------

e-17-16-14-12----12------------------
B-------------14----14-12b14-12b14---
G------------------------------------
D------------------------------------
A------------------------------------
E------------------------------------

e-------12----14b16r14-12----12------
B-12b14----14-------------14----14---
G------------------------------------
D------------------------------------
A------------------------------------
E------------------------------------

e-------12-10-9---------------------|
B-12-10---------10------------------|
G-----------------------------------|
D-----------------------------------|
A-----------------------------------|
E-----------------------------------|

(Riff intro)

Verso 5:
Am
Destruction leads to a very rough road 
       F
But it also breeds creation
Am
And earthquakes are to a girl´s guitar
         F
They are just another good vibration
    C                    G
And tidal waves couldn´t save the world
     F       Dm
From Califonication

Ponte:
Am      F7+  
(Ooooooooooooooohoooooooooh)
Am      F7+  
(Ooooooooooooooohoooooooooh)
Am                            F7+  
Pay your surgeon very well to break the signs of aging
Am                                       F7+  
Sicker then the rest - there is no test but this is what you´re craving
Am             F7+  
 First born unicorn___
Am               F7+  
 Hard core_ soft porn___

Refrão:
C            G    Dm       Am
Dream of Californication
C            G    Dm 
Dream of Californication___ (2x)


Enviada por Sem inscrição
Correções equipepegacifras, equipepegacifras
Nº de acordes: 6