RBD

Este Corazón Acoustic

RBD

259 exibições
Tom: G

Segue a introdução assim: 
E|-------|-------|---2---|-------|-------|-------|-------| 
A|-------|---1---|-------|-------|-------|-------|-------| 
D|-------|-------|-------|-------|-------|-------|-------| 
G|-------|-------|-------|-------|-------|-------|-------| 
B|-------|-------|---3---|-------|-------|-------|-------| 
e|-------|-------|---4---|-------|-------|-------|-------| 

E|-------|---2---|-------|-------|-------|-------|-------| 
A|---1---|-------|-------|-------|-------|-------|-------| 
D|-------|-------|-------|-------|-------|-------|-------| 
G|-------|-------|-------|-------|-------|-------|-------| 
B|-------|---3---|-------|-------|-------|-------|-------| 
e|-------|---4---|-------|-------|-------|-------|-------| 

E|---2---|-------|-------|-------|-------|-------|-------| 
A|-------|-------|-------|-------|-------|-------|-------| 
D|-------|-------|-------|-------|-------|-------|-------| 
G|-------|-------|-------|-------|-------|-------|-------| 
B|---3---|-------|-------|-------|-------|-------|-------| 
e|---4---|-------|-------|-------|-------|-------|-------| 

E|-------|-------|---2---|-------|-------|-------|-------| 
A|-------|---1---|-------|-------|-------|-------|-------| 
D|-------|-------|-------|-------|-------|-------|-------| 
G|-------|-------|-------|-------|-------|-------|-------| 
B|-------|-------|-------|-------|-------|-------|-------| 
e|-------|-------|---4---|-------|-------|-------|-------| 
Repete a introdução. 

Siga sempre o G assim: 
E|-------|-------|---2---|-------|-------|-------|-------| 
A|-------|---1---|-------|-------|-------|-------|-------| 
D|-------|-------|-------|-------|-------|-------|-------| 
G|-------|-------|-------|-------|-------|-------|-------| 
B|-------|-------|---3---|-------|-------|-------|-------| 
e|-------|-------|---4---|-------|-------|-------|-------| 

Siga sempre o C assim: 
E|-------|-------|---2---|-------|-------|-------|-------| 
A|-------|-------|---3---|-------|-------|-------|-------| 
D|-------|---1---|-------|-------|-------|-------|-------| 
G|-------|-------|-------|-------|-------|-------|-------| 
B|-------|-------|---4---|-------|-------|-------|-------| 
e|-------|-------|-------|-------|-------|-------|-------| 


G                         D 
Cómo poder recuperar tu amor 
          Em7                       Bm 
Cómo sacar la tristeza de mi corazón 
   C                        G 
Mi mundo solo gira por ti 

G                         D 
Cómo sanar este profundo dolor 
          Em7                       Bm 
Siento correr por mis vienas tu respiración 
   C                        G 
Estoy tan conectada a ti 
                            Am                      D 
Que hasta en mis sueños te veo, sin ti yo me muero 

    G                                      Em7 
Y este corazón que te robaste cuando te marchaste 
      C 
Tu te marchaste con mis besos 
   Am                    D 
Con mis besos y mis sueños 
    G                                  Em7 
Y este corazón está latiendo cada vez más lento 
        C 
Y estoy sintiendo en mis adentros 
   Am                     D              G 
Cómo el fuego nó se apagó 

Intro. 

G                         D 
Cómo calmar esta profunda obsesión 
          Em7                       Bm 
Cómo le explico a mi alma que se terminó 
   C                        G 
Me estoy volviendo loco por ti 
                            Am                      D 
Que hasta en mis sueños te veo, sin ti yo me muero 

    G                                      Em7 
Y este corazón que te robaste cuando te marchaste 
      C 
Tu te marchaste con mis besos 
   Am                    D 
Con mis besos y mis sueños 
    G                                  Em7 
Y este corazón está latiendo cada vez más lento 
        C 
Y estoy sintiendo en mis adentros 
   Am                     D           C 
Cómo el fuego nó se apagó 

                                        Am  
Sigue ardiendo, mientras exista el amor 
 D                          G 
No se apagó el amor 
 Em7                         C 
Uooooh! Uooooooooooooh! 
Am              D 
Y este corazón 

    G                                      Em7 
Y este corazón que te robaste cuando te marchaste 
      C 
Tu te marchaste con mis besos 
  Am                    D 
Con mis besos y mis sueños 
    C                                   G 
Y este corazón está latiendo cada vez más lento 
        Am 
Y estoy sentiendo en mis adentros 
D                                             G 
Como el fuego no se apagó 

Intro. 
Obs.: Quanto mais perto do final da introdução você estiver, vá tocando mais devagar.


Enviada por maau
Nº de acordes: 6