Push Play

Midnight Romeo

Push Play

20 exibições
Capotraste 4ª casa

Intro/Verso 1/Verso 2:
   Bm         G        Em         D 
e|-------2--------3--------0---------2-------------|
B|-----3--------0--------0---------3---------------|
G|---4--------0--------0---------2-----------------|
D|-4--------0--------2---------0-------------------|
A|-------------------------------------------------|
E|-------------------------------------------------|

Pré-Refrão:
   Bm       G        Em                           A               D
   V        V V      V                            V               V
e|-2--------3-3------0----------------------------0---------------2--------|
B|-3--------0-0------0----------------------------2---------------3--------|
G|-4--------0-0------0-------------------------—--2----—----------2--------|
D|-4--------0-0------2----------------------------2---------------0--------|
A|-2--------2-2------2----------------------------0------------------------|
E|----------3-3------0-----------------------------------------------------|
   Oh. Whooa     My heart is beating fast but my hands are moving slow

   Bm       G        Em                      A               
   V        V V      V                       V   ^   V   ^     
e|-2--------3-3------0-----------------------0---0---0---0-----------------|
B|-3--------0-0------0-----------------------2---2---2---2-----------------|
G|-4--------0-0------0---------—-------------2---2---2---2-----------------|
D|-4--------0-0------2-----------------------2---2---2---2-----------------|
A|-2--------2-2------2------------------ ----0---0---0---0-----------------|
E|----------3-3------0-----------------------------------------------------|
   Oh. Whooa        Feels so right you just can't say no

Refrão:
Bm
 Late night gonna hit the town
     Em
Gonna take you out
                G 
Gonna make you whooa
    A
Whooaa. Midnight romeo
Bm
 Show me yours and I'll show you mine
     Em
Gonna make you sweat
                       G
Gonna feel you head to toe
    A
You know, I'm your midnight romeo

(Intro)

(Verso 2)

(Pré-Refrão)

(Refrão)


Ponte:
Bm                Em                   Bm
 Now its time I'll turn the lights down low

Show me yours and I'll show you mine
     Em
Gonna make you sweat

Gonna be your Romeo
Bm               Em               G        A
 Take my hand its time to lose control  Whooooaa

I'm your Midnight Romeo.


Bm  
 Late night gonna hit the town
     Em  
Gonna take you out
                G  
Gonna make you whooa
   A
Whooooaa

(Refrão) 2x


Enviada por Sem inscrição
Nº de acordes: 5