Sem imagem

A Fórmula Do Amor

Penélope

590 exibições
Intro: 
(1x só guitarra e outra com a base)

  D                                 Bm 
E|---------------------------------|---------------------------------| 
B|-----3---2-----3---2-----2-3-2---|-----3---2-----3---2-----2-3-2-0-| 
G|-----2---2-----2---2-----2~------|-----2---2-----2---2-----2~----0-| 
D|-0-0---0---0-0---0---0-0-------0-|---------------------------------|
A|---------------------------------|-2-2---2---2-2---2---2-2---------| 
E|---------------------------------|---------------------------------| 

  G                                 A 
E|---------------------------------|---------------------------------| 
B|-----3---2-----3---2-----2-3-2-0-|---------------------------------| 
G|-----0---0-----0---0-----0~----0-|---------------------------------| 
D|---------------------------------|-2-2-2-----2-----2-----2---------|
A|---------------------------------|-0-0-0-3-0-3-0-3-0-3-3-| 
E|-3-3---3---3-3---3---3-3---------|---------------------------------| 


D
Eu tenho o gesto exato, sei como devo andar 
Bm
Aprendi nos filmes pra um dia usar 
G
Um certo ar cruel de quem sabe o que quer 
Em               A
Tenho tudo planejado pra te impressionar

D
Luz de fim de tarde, meu rosto em contra-luz 
Bm
Não posso compreender, não faz nenhum efeito 
G
A minha aparição será que errei na mão 
   Em                            A
As coisas são mais fáceis na televisão 

F#m                 G
Mantenho o passo alguém me vê 
D                G
Nada acontece, não sei porque 
              D             G
Se eu não perdi nenhum detalhe 
                   A
Onde foi que eu errei 

        D          Bm         G   A
Ainda encontro a fórmula do amor   
        D          Bm         G   A
Ainda encontro a fórmula do amor       
      F#m     Bm  G                D      A   
Ainda encontro a fórmula a fórmula do amor

 
Intro: (D Bm G A) 


D
Eu tenho a pose exata pra me fotografar 
Bm
Aprendi num vídeo pra um dia usar 
G
Um certo ar cruel, de quem sabe o que quer 
Em              A
Tenho tudo ensaiado pra te conquistar 

D
Eu tenho um bom papo e sei até dançar 
Bm
Não posso compreender, não faz nenhum efeito 
G
A minha aparição será que errei na mão 
Em                              A   
As coisas são mais fáceis na televisão 

F#m                 G
Eu jogo um charme, alguém me vê 
 D    		         G
Nada acontece, não sei porque 
              D             G
Se eu não perdi nenhum detalhe 
	          A
Onde foi que eu errei

        D          Bm         G   A     
Ainda encontro a fórmula do amor    
        D          Bm         G   A     
Ainda encontro a fórmula do amor        
      F#m      Bm  G                 D      A
Ainda encontro a fórmula a fórmula do amor


Solo: D Bm G A D Bm G A      (Postarei o solo mais tarde galera)
                 uuuuuuu
 
F#m                 G
Eu jogo um charme, alguém me vê 
D    		   G        
Nada acontece, não sei porque 
              D             G
Se eu não perdi nenhum detalhe 
	             A
Onde foi que eu errei

        D          Bm         G   A 	   |    
Ainda encontro a fórmula do amor      |   
        D          Bm         G   A	   |    2x
Ainda encontro a fórmula do amor      |   
      F#m      Bm  G         D   A 	   |
Ainda encontro a fórmula a fórmula do amor |


Enviada por Sem inscrição
Nº de acordes: 7