Pearl Jam

Jeremy

Pearl Jam

8.923 exibições
Tom: A
[Intro]
Riff1a   Riff1b
Riff1a   Riff1c
Riff1a
e----------------------|----------------------|
B----------------------|----------------------|
G---------------2----0-|----------<12>--------|
D------0h2-------------|-<12>-----------------|
A--0--------0-----0----|----------------------|
E----------------------|----------------------|
Riff1b
e----------------------|----------------------|
B----------------------|----------------------|
G---------------2----0-|----------------------|
D------0h2-------------|-<12>-----------------|
A--0--------0-----0----|----------<12>--------|
E----------------------|----------------------|
Riff1c
e----------------------|----------------------|
B----------------------|----------------------|
G----------------------|----------------------|
D----------------------|----------------------|
A-<12>-----------------|----------------------|
E----------------------|----------------------|
           drums enter
Bass intro riff
G----------------------
D---------------7----5-
A--0---5/7--0-----0----
E----------------------
Bass verse riff
G----------------------|---------------------
D---------------7----5-|-------------7-----5-
A--0---5/7--0-----0----|-0---5/7--0----0-0---
E----------------------|---------------------
[Verse] (bass riff 4x)
At home_, drawing pictures__  of mountain tops__
with_ him_ on top_  Lemin yellow sun_
arms___ raised in a V_
  And the dead lay_  in pools of maroon below
[Pre-chorus]
A/A G/A            G/A
    Daddy__ didn't give attention_
F#/A  A
      Oh__, to the fact that mommy_ didn't_
A/A G/A
 care__   King_ Jeremy_
    F#/A     A
the wicked__      oh_, ruled his world___
[Chorus]
F                   Dm  Em F         A
Jeremy spoke__ in      class_____  today_________
F                   Dm  Em F         A
Jeremy spoke__ in      class_____  today_________
Chorus riff 'play during A (day___)'
e-------------12----------
B---12h14p12------12------
G---------------------14--
D-------------------------
A-------------------------
E-------------------------
[Verse] (bass riff 8x)
 Clearly I_ remember__  pickin' on the boy_
 Seemed a harmless__ little fuck
Ooh_, but we unleashed__ a lion_
 Gnashed his teeth and bit the recess lady's breast_
How__ can_ I_ forget__?
And he hit me with a surprise____ left_
My jaw left hurtin'    ooh, dropped wide open
Just like the day___
oh, like_ the_ day_ I_ heard_______
[Pre-chorus]
A/A G/A            G/A
    Daddy__ didn't give affection_  no
F#/A    A
And the boy was something that mommy wouldn't
A/A G/A
 wear__   King_ Jeremy_
    F#/A     A
the wicked__      oh_, ruled his world___
[Chorus]
F                   Dm  Em F         A
Jeremy spoke__ in      class_____  today_________
F                   Dm  Em F         A
Jeremy spoke__ in      class_____  today_________
F                    Dm  Em    F       A
Jeremy spoke___ in___    class_____  today_____________________ay
Riff2 (bridge)
e-----------------------|
B-----------------------|
G-----------------------|
D---------------7~~-5~~-|
A--0---5h7--0-----------|
E-----------------------|
[Bridge]
Riff2           Riff2
Woo Woo Woo Woo Woo Woo Woo Woo
Riff2           Riff2
Woo Woo Woo Woo Woo Woo
Riff2                Riff2
 Try_ to forget this  try_ to forget this
Riff2                Riff2          A
 Try_ to erase this   try_ to erase this
              F           Dm           Am  G/B  C   Dm
From the blackboard_____________________________________
                                 (Woooooohooooooooooooh)

[Chorus]
F                   Dm  Em F         A
Jeremy spoke__ in      class_____  today_________
F                   Dm  Em F         A
Jeremy spoke__ in      class_____  today_________
F                   Dm     C  G/B    Am 
Jeremy spoke__ in,   spoke in___
Am
Jeremy spoke__ in,   spoke in___
F                    G             Am
Jeremy spoke__ in      class____ today________________________
F               G                Am
Woo Woo Woo Woo Woo Woo Woo Woo  Woo Woo Woo Woo Woo Woo Woo Woo
                        (spoken       spoken        spoken)
F               G                Am
Woo Woo Woo Woo Woo Woo Woo Woo  Woo Woo Woo Woo Woo Woo Woo Woo
        (spoken          spoken       spoken        spoken)
F               G                Am
Woooooohhh_____oh_____oh_______oh_oh_oh____
                                              (spoke in, spoke in)
F               G                Am
                                              (spoke in, spoke in)
F               G                Am
Woooooohhh_____oh_____oh_______oh_oh_oh____ohohohoh
                                              (spoke in, spoke in)
F               G                Am
Woooooohhh______________________________  I_ I_ I_ I_ I_ I_ I_ I_ I_ yeah
F               G                Am
  uh huh           uh huh            uh huh     uh huh yeaheah
F               G                Am
  uh huh           uh huh            uh huh     uh huh
[Outro]
Outro riff
Outro riff (slowly + outro harmonics at the end)

Outro riff
e--------------------------|---------------------------
B---------8-----------7----|---------3-----------5-----
G-------9----------7-----7-|-------4----------5-----5--
D--------------------------|---------------------------
A---0----------0-----------|---0----------0------------
E--------------------------|---------------------------

e--------------------------|---------------------------
B---------0-----------1----|--------0------------1-----
G-------0----------2-----2-|------0-----------2-----2--
D--------------------------|---------------------------
A---0-----------0----------|---0----------0------------
E--------------------------|---------------------------
Outro harmonics
e----------------------|
B----------------------|
G----------<12>--------|
D-<12>-----<12>--------|
A-<12>-----------------|
E----------------------|


Enviada por Sem inscrição
Nº de acordes: 11