Os Paralamas do Sucesso

Aonde Quer Que Eu Vá

Os Paralamas do Sucesso

11.301 exibições
Capotraste 5ª casa

Tom: Em

Obs: Nos acordes         apertar com o dedo mindinho na corda da 3° casa na mi(e) aguda.
                (Em7 Am7)

e|--------------------------------
B|--------------------------------
G|--------------------------------
D|--------------------------------
A|-0h2----------------------------
E|-----0--------------------------

Verso 1:
Em7      G
Olhos fechados
Em7          G
Pra te encontrar
Em7                G  
Não Estou ao seu lado
Em7          G
Mas posso sonhar

Refrão:              
C9                Am7
Aonde quer que eu vá
       G
Levo você
D4/F# Em7 
no olhar
C9                Am7
Aonde quer que eu vá
                  G  D4/F#  Em7 
Aonde quer que eu vá

e|--------------------------------
B|--------------------------------
G|--------------------------------
D|-----0--------------------------
A|-0h2----------------------------
E|--------------------------------

Verso 2:
Em7         G    
Não sei bem certo
Em7        G
Se é só ilusão
Em7          G
Se é você já perto
Em7       G
Se é intuição

Refrão:              
C9                Am7
Aonde quer que eu vá
       G
Levo você
D4/F# Em7 
no olhar
C9                Am7
Aonde quer que eu vá
                  G  D4/F#  Em7 
Aonde quer que eu vá

Ponte:
A9      F#m
Longe daqui
         C#m
Longe de Tudo
  D                A9
O sonhos vão te buscar
          F#m
Volta pra mim
            C#m
Vem pro meu mundo
   D                  A9   F#m  C#m  D  C  B7
Eu sempre vou te esperar   La Larara

e|--------------------------------
B|--------------------------------
G|--------------------------------
D|-----0--------------------------
A|-0h2----------------------------
E|--------------------------------

(Verso 2)

(Refrão)

Vocalização:
(C9 Am7 G D4/F# Em7) 3x
La larara larara


Enviada por Sem inscrição
Correção por equipepegacifras
Nº de acordes: 12