Sem imagem

Linda Louca E Mimada

Oriente

254 exibições
Tom: C#m

Intro: 

1

   C#m
E|----------------4-------------------------|
B|-------5----------------------------------|
G|-----6------6-----------------------------|
D|---6------6----------6--------------------|
A|-4-----4------4---4-----------------------|
E|------------------------------------------|


2

   G#m
E|------------------------------------------|
B|--------4----------4----------------------|
G|---4-----------4--------------------------|
D|-----6-----6------------------------------|
A|------------------------------------------|
E|-4------4----4---4---4\-------------------|


3

   F#m
E|------------------2-----------------------|
B|-------2----------------------------------|
G|---2----------2-------2-------------------|
D|-----4----4-------------------------------|
A|------------------------------------------|
E|-2-----2----2---2---2---------------------|


4

   G#7
E|--------------4---------------------------|
B|-------4----------4-----------------------|
G|---5------------------5-------------------|
D|-----4----4-------------------------------|
A|------------------------------------------|
E|-4-----4----4---4---4---------------------|


5

   C#m         C#m7
E|---------4-------7---4--------------------|
B|---5--x--5--------------------------------|
G|---6--x--6---4------------x---------------|
D|---6--x-------------------x---------------|
A|-4----x--4-----4---4---4------------------|
E|------------------------------------------|



6

   G#m
E|------------------------------------------|
B|--------4----------4----------------------|
G|---4-----------4--------------------------|
D|-----6-----6------------------------------|
A|------------------------------------------|
E|-4------4----4---4---4\-------------------|



7

   F#m
E|------------------2-----------------------|
B|-------2----------------------------------|
G|---2----------2-------2-------------------|
D|-----4----4-------------------------------|
A|------------------------------------------|
E|-2-----2----2---2---2---------------------|



8

   G#7
E|------4---4-4----4-4--4-4-----------------|
B|---4--4---4-4----4-4--4-4-----------------|
G|---5--5---5-5----5-5--5-5-----------------|
D|---4--4---4-4----4-4--4-4-----------------|
A|------6---6-6----6-6--6-6-----------------|
E|-4----4---4-4----4-4--4-4-----------------|



C#m  G#m  F#m  G#7

      
C#m  C#m7             G#m
    Linda, louca e Mimada
 
Sabem do poder que têm
F#m                        G#7
  E não tem medo de usá-lo


Refrão:   ↑xx    ↑↓   ↓↑↓↑

         C#m
Ela só quer viajar
         G#m7(11)
Ela só quer viajar
               F#m
Da night pra praia

Da praia pra casa, da casa pro lar

No drop alucinante
     G#7
Constante da onda eterna

Quem reina é ela no reino do mar
         C#m
Ela só quer viajar
         G#m
Ela só quer viajar
         F#m
Ela só quer viajar
                         G#7
Daqui pra qualquer lugar


Primeira Parte:

1

   C#m
E|------------------------------------------|
B|-5--5--x---5--5---------------------------|
G|-6--6--x---6--6---------------------------|
D|-6--6--x---6--6----6----6-----------------|
A|-4---------4-----4----4-------------------|
E|------------------------------------------|




2

   G#m
E|------------------------------------------|
B|-4--4--x---4--4---------------------------|
G|-4--4--x---4--4---------------------------|
D|-6--6--x---6--6----6----6-----------------|
A|------------------------------------------|
E|-4---------4-----4----4-------------------|


3

   F#m
E|------------------------------------------|
B|-2--2--x---2--2---------------------------|
G|-2--2--x---2--2---------------------------|
D|-4--4--x---4--4----4----4-----------------|
A|------------------------------------------|
E|-2---------2-----2----2-------------------|



4

   G#7
E|------------------------------------------|
B|-4--4--x---4--4---------------------------|
G|-5--5--x---5--5---------------------------|
D|-4--4--x---4--4----4----4-----------------|
A|------------------------------------------|
E|-4---------4-----4----4-------------------|



          C#m
A gata arrisca e dropa

Linda, louca e mimada
         G#m
Bendito seja o homem que possa conquistá-la
          F#m
Quem tem ninety nine percent é quente
                    G#7
Tem que vê de perto

Ela é doce, sal, bala
          C#m
Embalada, ela dança,
                         
Uma criança na madrugada
G#m
  Sua maquiagem, suas tatuagens
          F#m
São proteção, chamam atenção
                  
Que seu pai não pode dá-la
G#7
  Olha dentro dos meus olhos, joga o cabelo
       C#m
Bota o óculos, fica ainda mais charmosa
                  G#m
No caminho de volta pra casa

Ela vê que vai pra praia, joga altinha
     F#m
Bebe água, tem uma vida agitada
                 G#7
Mas a pele bem tratada

Como pode ser

Segunda Parte:   ↑xx   ↑↓  ↓↑xx

     C#m
Tão gata e ao mesmo tempo tão louca
          G#m
O homem que já teve sua companhia 
                       F#m
Jamais se satisfaz com outra

Troca de roupa mil vezes
                  G#7
Até decidir a melhor

Já foi muito magoada
                    C#m
Por isso magoa sem dó

Pra ter sua companhia 
                  G#m
Só se ela simpatizar

Tem seu carro, tem sua casa 
                    F#m
Seu dinheiro pra pagar

Tem uma frase que repete
                     G#7
Segue que a faz flutuar

Não importa onde estamos
                     C#m
Nossa mente é nosso lar


Segundo Refrão:

         C#m
Ela só quer viajar
         G#m
Ela só quer viajar
               F#m
Da night pra praia

Da praia pra casa, da casa pro lar

No drop alucinante
     G#7
Constante da onda eterna

Quem reina é ela no reino do mar
         C#m
Ela só quer viajar
         G#m
Ela só quer viajar
         F#m
Ela só quer viajar
                         G#7
Daqui pra qualquer lugar

Terceira Parte:

 xx    xx   xx  xx  ↓↑↓↑

C#m
  E ela escapa de cada furada
G#m
  E ela chega a hora que ela quer
F#m
  Tudo brilha onde ela passa
G#7
  Ela sai a hora que ela quer

Falou, mina


Quarta Parte:


x↑ x↑ x↑ x↑

C#m
  É um vaso de cristal com flores mortas
G#m
  Um drink forte em uma boate qualquer
        F#m
Sua vontade incontrolável 

Lhe fecha e abre portas
G#7
  Ela chega e sai a hora que ela quer


  ↑xx   ↑↓  ↓↑xx

C#m
  O seu batom mata mais que uma pistola
G#m
  Inspirada em "Natasha" do Capital
F#m
  Pistoleira de antigos carnavais 
           G#7
E coisa e tal

Todos os homens tão afim 

De algo a mais no final
C#m
  Com 17 anos e fugiu de casa
G#m
  Mas já conhece incontáveis canções
F#m
  Ela tem alma de pipa avoada
              G#7
Mas na sua estante imaginária

Coleciona corações


Final:

  ↑xx   ↑↓  ↓↑xx

         C#m
Ela só quer viajar
         G#m       F#m
Ela só quer viajar
G#7
  Quem reina é ela no reino do mar
         C#m
Ela só quer viajar
         G#m
Ela só quer viajar
         F#m
Ela só quer viajar
                      G#7
Daqui pra qualquer lugar


Enviada por Sem inscrição
Nº de acordes: 7