Nando Reis

Por Onde Andei

Nando Reis

23.393 exibições
Tom: C

Intro: 

Parte 1:
  C                     G                     
e---------------------------------------------------
B---------------------------------------------------
G-------0-------0-----------------------------------
D---0h2---2-------------------0-------0-------------
A-3---------3-3---3-3-2---0h2---2-------------------
E-----------------------3---------3-3---------------

  Dm7                       F
e---------------------------------------------------
B---------------------------------------------------
G-----------0-------0----------------0--------------
D---------3---3---3------------3---3---3--------3-0-
A-0-0-3-5-------5----5-5-0-3-3---3-------3-3-3-3----
E---------------------------------------------------

Parte 2:
  C                     G                     
e---------------------------------------------------
B---------------------------------------------------
G-------0-------0-----------------------------------
D---0h2---2-------------------0-------0-------------
A-3---------3-3---3-3-2---0h2---2-------------------
E-----------------------3---------3-3---------------

  Dm7                          F
e--------------------------------------------------|
B------------------------------1-1-----------------|
G-----------0-----0-----0------2-2-----------------|
D---------3---3-----3-----3----3-3-----------------|
A-0-0-3-5-------5-----5-----5--3-3-----------------|
E------------------------------1-1-----------------|


Verso 1:
           C 
Desculpe estou um pouco atrasado 
      G
Mas espero que ainda de tempo
     Dm7                         F
De dizer que andei errado e eu entendo 
         C
As suas queixas estão justificadas 
           G
E a falta que eu fiz nessa semana 
Dm7                             F                 
Coisas que pareceriam óbivias até pra uma criança 

Refrão 1:
    C
Por onde andei 
          G
Enquanto você me procurava 
Bb9                       F                   
Será que eu sei que você mesmo é tudo aquilo que me 
   (Intro Parte 1)
faltava? 

Verso 2:
        C
Amor eu sinto a sua falta
            G
E a falta é morte da esperança 
       Dm7                               F
Como o dia em que roubaram o seu carro, deixou uma lembrança 

             C
Que a vida é mesmo coisa muito frágil 
      G
Uma bobagem uma irrelevância 
 Dm7	                 F
Diante da eternidade do amor, de quem se ama 

Refrão 2:
    C
Por onde andei 
          G
Enquanto você me procurava 
    Bb9                      F
E o que eu te dei, foi muito pouco ou quase nada 
   C			 G
E que eu deixei, algumas roupas penduradas 
  Bb9 			   F
Será que eu sei que você é mesmo tudo aquilo que me faltava?

Vocalização:
C      G       Dm7
AH AH AH AH AH AH     
F 
UH UH UH UH

C      G       Dm7
AH AH AH AH AH AH     
F 
UH UH UH UH
            
(Parte 2)

(Refrão)

(Vocalização)

(Refrão)

(Vocalização)


Enviada por Sem inscrição
Correções ufodf, equipepegacifras
Nº de acordes: 7