Mozart

Can Can

Mozart

4.439 exibições
E-------1-0---3-3--3-5--0-1-----------1-0------------- 
B-1-1-3-----3---------------3-3----3-------3--1------- 
G----------------------------------------------------- 
D----------------------------------------------------- 
A----------------------------------------------------- 
E----------------------------------------------------- 
 
E-8-7-5-3-1-0----------1--0-----3-3--3-5-0-1---------- 
B-------------3-1-1-3--------3----------------3-3----- 
G----------------------------------------------------- 
D----------------------------------------------------- 
A----------------------------------------------------- 
E----------------------------------------------------- 
 
E---1-0------3-----0---------------------------------- 
B-3-----3--1----3-----1------------------------------- 
G----------------------------------------------------- 
D----------------------------------------------------- 
A----------------------------------------------------- 
E----------------------------------------------------- 


Enviada por Sem inscrição
Nº de acordes: 0