Michel Teló

Ponto Certo

Michel Teló

94 exibições
Tom: G
Intro: G D Em C

e|-----------------------      -----------------
B|--/7-7-7-7-7-7-3-------      -3h5-3-----------
G|----------------------- (3x) -------5-3-3/5-3-
D|-----------------------      -----------------
A|-----------------------      -----------------
E|-----------------------      -----------------

e|----------------------       ------------
B|--/7-7-7-7-7-7-3------       --3/4-3-2---
G|----------------------  (3x) ---------2~-
D|----------------------       ------------
A|----------------------       ------------
E|----------------------       ------------

G
Foi só chegar, E sem querer você me olhou,
D
Foi só olhar, Que o meu coração disparou,
Em
Que confusão, Você fez meu mundo girar,
C
Que tentação, Eu sinto seu cheiro no ar, 
                    
(1ª parte tocar em pestana)

G
É muito mais do que uma simples emoção,
D
Você marcou pra sempre o meu coração,
Em
Dona de mim, Dona da minha paixão,
C
Eu descobri que você é minha razão.

Refrão:
G                       D
Que jeito mais louco Que me envolveu
Em                   C
Que coisa gostosa Você e eu
G                       D
Quero te beijar Como é bom te encontrar
Em                         C
Você sabe o ponto certo de me amar (2x)

(G  D  Em  C) 2x


Enviada por Sem inscrição
Nº de acordes: 4