Capotraste 1ª casa

Tom: C
Intro: (C  D  Em  D/F#  G/B  C) 2x

     C  D  Em D/F# G/B C   C  D  Em D/F# G/B C
E|-------------------------------------------------|
B|--5--7--8--10---3/5-----5--7--8--10---3/5--------|
G|-------------------------------------------------|
D|-------------------------------------------------|
A|--3--5--7--9----2/3-----3--5--7--9----2/3--------|
E|-------------------------------------------------|

     C
Sei bem
                     D
O que te faz bem eu sei

                       Em
Mas do fundo eu já tentei
 Em     D   Bm  C
Não faltou co--ragem

C                      D
É uma hora eu ia me tocar
                          Em
Que você não vai mais voltar
     Em  D      Bm  C
Não receber mensa--gem também é mensagem

 Am                         G
Sei que o pra sempre virou pó
                    D
E na cabeça deu um nó
                    Em   D
Mas eu tô bem consciente

      Am
Mas amei
                      G
Amei sozinho mas por dois
                                D
Me conformei que agora e não depois

Vou ter que seguir em frente

          C
Preocupa não
                  D          Em
Que eu não vou bater no seu portão
          C
Preocupa não
                            D               Em
Que não vai ver mais o meu nome em nenhuma ligação
     C
Preocupa não
             D             Em
Que eu vou tomar vergonha na cara
          C
Preocupa não
                   D
Pra um bom entendedor meia ausência basta

( C  D  Em  D/F#  G/B  C )
( C  D  Em  D/F#  G/B  C )

     C  D  Em D/F# G/B C   C  D  Em D/F# G/B C
E|-------------------------------------------------|
B|--5--7--8--10---3/5-----5--7--8--10---3/5--------|
G|-------------------------------------------------|
D|-------------------------------------------------|
A|--3--5--7--9----2/3-----3--5--7--9----2/3--------|
E|-------------------------------------------------|

 Am                         G
Sei que o pra sempre virou pó
                    D
E na cabeça deu um nó
                    Em   D
Mas eu tô bem consciente

      Am
Mas amei
                      G
Amei sozinho mas por dois
                                D
Me conformei que agora e não depois

Vou ter que seguir em frente

          C
Preocupa não
                  D          Em
Que eu não vou bater no seu portão
          C
Preocupa não
                            D               Em
Que não vai ver mais o meu nome em nenhuma ligação
     C
Preocupa não
             D             Em
Que eu vou tomar vergonha na cara
          C
Preocupa não
                   D
Pra um bom entendedor meia ausência basta
          C
Preocupa não
                  D          Em
Que eu não vou bater no seu portão
          C
Preocupa não
                            D               Em
Que não vai ver mais o meu nome em nenhuma ligação
     C
Preocupa não
             D             Em
Que eu vou tomar vergonha na cara
          C
Preocupa não
                   D
Pra um bom entendedor meia ausência basta

[Final]  C  D  Em  D/F#  G/B  C
         C  D  Em

     C  D  Em D/F# G/B C   C  D  Em
E|-------------------------------------------------|
B|--5--7--8--10---3/5-----5--7--8------------------|
G|-------------------------------------------------|
D|-------------------------------------------------|
A|--3--5--7--9----2/3-----3--5--7------------------|
E|-------------------------------------------------|


Enviada por Sem inscrição
Nº de acordes: 8