Maná

Vivir Sin Aire

Maná

10.324 exibições
Tom: G

Intro: (Dedilhado)

  G             Bm           C
e------------5--2-------5r2--0-------3----
B---------------------3----------1--------
G---0---------------4----------0---0------
D-----0-----------4-----------------------
A-------0h2--5--2------------3------------
E-3---------------------------------------

  D     D9  D4
e-2-----0h2-3-----------------------------
B-----3-----------------------------------
G---2-------------------------------------
D-0---------------------------------------
A-----------------------------------------
E-----------------------------------------

  G             Bm           C
e------------5--2-------5r2--0-------3----
B---------------------3----------1--------
G---0---------------4----------0---0------
D-----0-----------4-----------------------
A-------0h2--5--2------------3------------
E-3---------------------------------------

  D7     D7/9 D9 
e-2-2-2--0-0------------------------------
B-1-1-1--1-1--3-3-------------------------
G-------------2-2-------------------------
D-----------------------------------------
A-----------------------------------------
E-----------------------------------------

  G             Bm           C
e------------5--2-------5r2--0-------3----
B---------------------3----------1--------
G---0---------------4----------0---0------
D-----0-----------4-----------------------
A-------0h2--5--2------------3------------
E-3---------------------------------------

  D     D9  D4
e-2-----0h2-3-----------------------------
B-----3-----------------------------------
G---2-------------------------------------
D-0---------------------------------------
A-----------------------------------------
E-----------------------------------------

  G             Bm           C          D
e------------5--2-------5r2--0-------3--3-
B---------------------3----------1--------
G---0---------------4----------0---0------
D-----0-----------4---------------------0-
A-------0h2--5--2------------3------------
E-3---------------------------------------

Verso 1: 
G          Bm   C       D7        G Bm C D7
 Como quisiera       poder vivir sin aire
G          Bm   C       D7        G Bm C D7
 Como quisiera       poder vivir sin agua
G           Bm  C       D7             G Bm C D7
 Me encantaria       quererte un poco menos
G          Bm   C       D7      G Bm C D7
 Como quisiera       poder vivir sin ti

Pré-Refrão:
C          D    Em           C
  Pero no puedo, siento que muero
G                          D   D4  D
  Me estoy ahogando sin tu amor

Refrão:
Em               C            G     D
Como quisiera poder vivir sin aire
Em                C           D
Como quisiera calmar mi afliccion
Em               C            G     D
Como quisiera poder vivir sin agua
Em               C          D
Me encantaria robar tu corazon

(Didilhado Intro)

Verso 2:
G         Bm  C      D7        G Bm C D7
 Como pudiera    un pez nadar sin agua
G         Bm  C    D7         G Bm C D7
 Como pudiera   un ave volar sin alas
G         Bm  C      D7         G Bm C D7
 Como pudiera   la flor crecer sin tierra
G         Bm  C     D7        G Bm C D7
 Como quisera    poder vivir sin ti
 
Pré-Refrão:
C          D    Em           C
  Pero no puedo, siento que muero
G                          D   D4  D
  Me estoy ahogando sin tu amor

Refrão:
Em               C            G     D
Como quisiera poder vivir sin aire
Em                C           D
Como quisiera calmar mi afliccion
Em               C            G     D
Como quisiera poder vivir sin agua
Em               C          D
Me encantaria robar tu corazon

Em               C          G    D
Como quisera lanzarte al olvido
Em                C             D
Como quisera guardarte en un cajon
Em                C              G    D
Como quisiera borrarte de un soplido
Em               C            D
Me encantaria matar esta cancion

Final:
G  Bm  C  D7  D7/4  G


Enviada por Sem inscrição
Correção por equipepegacifras
Nº de acordes: 10