Legião Urbana

Vento No Litoral

Legião Urbana

13.488 exibições
Versão 1:
--------

Tom : C
Introd.: Am Em Am Em F C F C

Violão 1 Base
    Am                Em   
E|-----0----------|------7-----------|
B|--1-------3---1-|-----------10---8-|
G|--2-----2---2---|---9-----9----9---|
D|--2-------------|---9--------------|
A|--0-------------|---7--------------|
E|----------------|------------------|
    F                 C
E|-----------------|-----------------|
B|-----6----5----3-|----5---3--------|
G|-----------------|--------------5--|
D|--3----3----3----|-----------------|
A|-----------------|-3----3----3-----|
E|-----------------|-----------------|

Violão 2 Solo
    Am            Em             F              C
E|----------------7-7s5-5s3-3-|-------------------------------|
B|--5-5s3--3s1-1--------------|--6-6s5-5s3-3----5-5s3--3s1-1--|
G|----------------------------|-------------------------------|
D|----------------------------|-------------------------------|
A|----------------------------|-------------------------------|
E|----------------------------|-------------------------------|

     Am                       Em
 De tarde quero descansar, chegar até a praia
          Am
 Ver se o vento ainda está forte
           Em
 E vai ser bom subir nas pedras
         C
 Sei que faço isso pra esquecer
    Bb
 Eu deixo a onda me acertar
     Am                       F    G Am F G C F
 E o vento vai levando tudo embora

                 Em
 Agora está tão longe
                    Dm
 Vê, a linha do horizonte me distrai:
            G                          F
 Dos nossos planos é que tenho mais saudade,
                  Em                   Dm
 Quando olhávamos juntos na mesma direção
       Bb
 Aonde está você agora
          Am                 F G Am F G Am
 Além de aqui, dentro de mim?

Solo sobre o violão 1 da introdução
     Am                               Em
E|------12-------------------------|------19-----17------15~-|
B|-------------15----13----12------|--17-----17------17------|
G|---14-----14----14----14----12~--|-------------------------|
D|---------------------------------|-------------------------|
A|---------------------------------|-------------------------|
E|---------------------------------|-------------------------|
    F             C             F             F   G      Am     F   G             
E|------------------------------------------|----------------------------|
B|--5-5s3-3s1-1---6-6s5-5s3-3---5-5s3-3s1-1-|-0--1--3--0-----0--1--3--0--|
G|------------------------------------------|-------------2--------------|
D|------------------------------------------|----------------------------|
A|------------------------------------------|----------------------------|
E|------------------------------------------|----------------------------|

 C                Cm
 Agimos certo sem querer
 G/B
 Foi só o tempo que errou
 F
 Vai ser difícil sem você
    A4              A            Dm
 Porque você está comigo o tempo todo
 Quando vejo o mar
 C
 Existe algo que diz:
      Bb                     G           
 - A vida continua e se entregar é uma bobagem
 Em          A7        Dm
 Já que você não está aqui,
              Dm/C      F      G
 O que posso fazer é cuidar de mim
       C
 Quero ser feliz ao menos
 F            Bb          G
 Lembra que o plano era ficarmos bem?

   Am  Em                Am   G C                F E4 E
 - Ei, olha só o que eu achei:   cavalos-marinhos

    Am                Em   
E|-----0----------|------7-----------|\
B|--1-------3---1-|-----------10---8-| \
G|--2-----2---2---|---9-----9----9---|  \2x
D|--2-------------|---9--------------|  /
A|--0-------------|---7--------------| /
E|----------------|------------------|/

 Em       C
 Sei que faço isso pra esquecer
    Bb
 Eu deixo a onda me acertar
     Am          G            F   G C 
 E o vento vai levando tudo embora

    F                 C
E|-----------------|-----------------|\
B|-----6----5----3-|----5---3--------| \
G|-----------------|--------------5--|  \3x
D|--3----3----3----|-----------------|  /
A|-----------------|-3----3----3-----| /
E|-----------------|-----------------|/

Solo do teclado
E|-----------5-7-8--8-8-8--7-5-7--7-7-7-5----5--5-5-5----------|\
B|--8-8-8-8-------------------------------8-------------8-7-8--| \
G|-------------------------------------------------------------|  \3x
D|-------------------------------------------------------------|  /
A|-------------------------------------------------------------| /
E|-------------------------------------------------------------|/

Versão 2:
--------

Tom : C
Introd.: Am Em Am Em F C F C

Violão 1 Base
    Am                Em   
E|-----0----------|------7-----------|
B|--1-------3---1-|-----------10---8-|
G|--2-----2---2---|---9-----9----9---|
D|--2-------------|---9--------------|
A|--0-------------|---7--------------|
E|----------------|------------------|
    F                 C
E|-----------------|-----------------|
B|-----6----5----3-|----5---3--------|
G|-----------------|--------------5--|
D|--3----3----3----|-----------------|
A|-----------------|-3----3----3-----|
E|-----------------|-----------------|

Violão 2 Solo
    Am            Em             F              C
E|----------------7-7s5-5s3-3-|-------------------------------|
B|--5-5s3--3s1-1--------------|--6-6s5-5s3-3----5-5s3--3s1-1--|
G|----------------------------|-------------------------------|
D|----------------------------|-------------------------------|
A|----------------------------|-------------------------------|
E|----------------------------|-------------------------------|

     Am                       Em
 De tarde quero descansar, chegar até a praia
          Am
 Ver se o vento ainda está forte
           Em
 E vai ser bom subir nas pedras
         C
 Sei que faço isso pra esquecer
    Bb
 Eu deixo a onda me acertar
     Am                       F    G Am F G C F
 E o vento vai levando tudo embora

                 Em
 Agora está tão longe
                    Dm
 Vê, a linha do horizonte me distrai:
            G     Am     G/B               F
 Dos nossos planos é que tenho mais saudade,
                  Em                   Dm
 Quando olhávamos juntos na mesma direção
         Bb
 Aonde está você agora
          Am                 F G Am F G Am
 Além de aqui, dentro de mim?

Solo sobre o violão 1 da introdução
     Am                               Em
E|------12-------------------------|------19-----17------15~-|
B|-------------15----13----12------|--17-----17------17------|
G|---14-----14----14----14----12~--|-------------------------|
D|---------------------------------|-------------------------|
A|---------------------------------|-------------------------|
E|---------------------------------|-------------------------|
 C             Bb           Am                F   G      Am     F   G             
E|------------------------------------------|----------------------------|
B|--5-5s3-3s1-1---6-6s5-5s3-3---5-5s3-3s1-1-|-0--1--3--0-----0--1--3--0--|
G|------------------------------------------|-------------2--------------|
D|------------------------------------------|----------------------------|
A|------------------------------------------|----------------------------|
E|------------------------------------------|----------------------------|

 C                Cm
 Agimos certo sem querer
 G/B
 Foi só o tempo que errou
 G/Bb
 Vai ser difícil sem você
    A4/7             A7          Dm
 Porque você está comigo o tempo todo
 Quando vejo o mar
 C
 Existe algo que diz:
      G/B      Am            G           F
 - A vida continua e se entregar é uma bobagem
 Em     A7             Dm
 Já que você não está aqui,
              Dm/C      Bb     G
 O que posso fazer é cuidar de mim
       C
 Quero ser feliz ao menos
 F            Bb          G
 Lembra que o plano era ficarmos bem?

   Am  Em                Am   G Am7 G/B Dm C           F     E4 E
 - Ei, olha só o que eu achei:             cavalos-marinhos

    Am                Em   
E|-----0----------|------7-----------|\
B|--1-------3---1-|-----------10---8-| \
G|--2-----2---2---|---9-----9----9---|  \2x
D|--2-------------|---9--------------|  /
A|--0-------------|---7--------------| /
E|----------------|------------------|/

 Em       C
 Sei que faço isso pra esquecer
    Bb
 Eu deixo a onda me acertar
     Am        Am/G            F   G C 
 E o vento vai levando tudo embora

    F                 C
E|-----------------|-----------------|\
B|-----6----5----3-|----5---3--------| \
G|-----------------|--------------5--|  \3x
D|--3----3----3----|-----------------|  /
A|-----------------|-3----3----3-----| /
E|-----------------|-----------------|/

Solo do teclado C F Am Bb6 Bb6/G
E|-----------5-7-8--8-8-8--7-5-7--7-7-7-5----5--5-5-5----------|\
B|--8-8-8-8-------------------------------8-------------8-7-8--| \
G|-------------------------------------------------------------|  \3x
D|-------------------------------------------------------------|  /
A|-------------------------------------------------------------| /
E|-------------------------------------------------------------|/

_______________________________________________________


Versão 3:

Tom : C
Introd.: Am Em Am Em F C F C

    Am                Em   
E|-----0----------|------7----5---3-|
B|----------3---1-|---------5---5---|
G|--2-----2---2---|---9-------------|
D|----------------|-----------------|
A|----------------|-----------------|
E|----------------|-----------------|
    F                 C
E|-----------------|----------------|
B|-----6----5----3-|----5----3----1-|
G|-----------------|----------------|
D|--7----5----3----|-5----3----2----|
A|-----------------|----------------|
E|-----------------|----------------|

    Am                       Em                     
De tarde quero descansar, chegar até a praia
         Am                                
Ver se o vento ainda está forte
          Em
E vai ser bom subir nas pedras

  C
E|-------------|
B|---5---3---1-|
G|-------------|
D|-5---3---2---|
A|-------------|
E|-------------|
        C
Sei que faço isso pra esquecer

 Bb
E|-------------|
B|---6---5---3-|
G|-------------|
D|-7---5---3---|
A|-------------|
E|-------------|
   Bb
Eu deixo a onda me acertar

 Am              F     G   Am  F     G   C
E|-----------------------------------------|
B|---5---3---1--0-1~-1-3-0----0-1~-1-3-0---|
G|-------------------------2-------------5-|
D|-5---3---2-------------------------------|
A|-----------------------------------------|
E|-----------------------------------------|

    Am                       F    G Am F G C  F
E o vento vai levando tudo embora

                Em
Agora está tão longe
                   Dm
Vê, a linha do horizonte me distrai:
           G                          F
Dos nossos planos é que tenho mais saudade,
                  Em                   Dm
Quando olhávamos juntos na mesma direção
      Bb
Aonde está você agora
         Am                 F G Am F G Am
Além de aqui, dentro de mim?

E|----------------------------|
B|-1-0-1~-1-3-0----0-1~-3-0---|
G|--------------2-----------2-|
D|----------------------------|
A|----------------------------|
E|----------------------------|

Solo sobre o violão 1 da introdução
   Am                              Em
E|----12-------------------------|---7----5---3-|
B|-----------15----13----12------|------5---5---|
G|-14-----14----14----14----12~--|-9------------|
D|-------------------------------|--------------|
A|-------------------------------|--------------|
E|-------------------------------|--------------|

E|-------------------------------------------------------------------|
B|---5---3---1----6---5---3----5---3---1--0-1~-1-3-0----0-1~-1-3-0---|
G|---------------------------------------------------2-------------2-|
D|-5---3---2----7---5---3----5---3---2-------------------------------|
A|-------------------------------------------------------------------|
E|-------------------------------------------------------------------|

Cm
Agimos certo sem querer
G/B
Foi só o tempo que errou
Bb
Vai ser difícil sem você
   A4              A            Dm
Porque você está comigo o tempo todo
Quando vejo o mar
C
Existe algo que diz:
     G/B      Am            G           F
- A vida continua e se entregar é uma bobagem
Em          A7        Dm
Já que você não está aqui,
             Dm/C      Bb     G
O que posso fazer é cuidar de mim
      C
Quero ser feliz ao menos
F            Bb          G
Lembra que o plano era ficarmos bem?

   Am                              Em
E|----12-------------------------|---7----5---3-|
B|-----------15----13----12------|------5---5---|
G|-14-----14----14----14----12~--|-9------------|
D|-------------------------------|--------------|
A|-------------------------------|--------------|
E|-------------------------------|--------------|

E|-----------|
B|-------6-7-|
G|-4-5-7-----|
D|-----------|
A|-----------|
E|-----------|

  Am  Em                Am   G C                F E4 E
- Ei, olha só o que eu achei:   cavalos-marinhos

 C
E|-------------|
B|---5---3---1-|
G|-------------|
D|-5---3---2---|
A|-------------|
E|-------------|

 Em       C
 Sei que faço isso pra esquecer

 Bb
E|-------------|
B|---6---5---3-|
G|-------------|
D|-7---5---3---|
A|-------------|
E|-------------|
    Bb
 Eu deixo a onda me acertar
 
 Am              G       F     G C
E|---------------------------|
B|---5---3---1--0-1~-1-3-0---|
G|-------------------------5-|
D|-5---3---2-----------------|
A|---------------------------|
E|---------------------------|

     Am          G            F   G C 
 E o vento vai levando tudo embora

  F                 C
E|-----------------|---------------|
B|-----6----5----3-|----5---3----1-|
G|-----------------|---------------|
D|--3----3----3----|-5----3----2---|
A|-----------------|---------------|
E|-----------------|---------------|

Teclado do Final:
E|-------------------------------------------------------|
B|-1--1-1-1-3-5-6--6-6-6-5-3-5--5-5-5-3-1-3--3-3-3-1-0-1-|
G|-------------------------------------------------------|2x
D|-2--2-2-2-3-5-7--7-7-7-5-3-5--5-5-5-3-2-3--3-3-3-2-0-2-|
A|-------------------------------------------------------|
E|-------------------------------------------------------|

_____________________________________________________

Versão 4:

Tom - C

Introdução - Am Em Am Em F C F C

transcrito por Thales de Bessa 02-12-2000

\= slide (deslizar o dedo)  

   E bom ouvir a musica para ter noção correta do tempo das notas

 e|-----------------------7-7\----5\----3------------------------------7-7\----5\----3-|
 B|--5-5\----3\----1-------------------------------5-5\----3\----1---------------------|
 G|------------------------------------------------------------------------------------|
 D|------------------------------------------------------------------------------------|
 A|------------------------------------------------------------------------------------|
 E|------------------------------------------------------------------------------------|

 e|------------------------------------------------------------------------------------|
 B|--6-6\---5\---3-------5-5\---3\---1-----------6-6\---5\----3--------5-5\---3\---1---|
 G|------------------------------------------------------------------------------------|
 D|------------------------------------------------------------------------------------|
 A|------------------------------------------------------------------------------------|
 E|------------------------------------------------------------------------------------|

    Am                       Em
De tarde quero descansar, chegar até a praia
         Am
Ver se o vento ainda está forte
          Em
E vai ser bom subir nas pedras
        C
Sei que faço isso pra esquecer
   Bb
Eu deixo a onda me acertar
    Am                       F    G Am F G C F
E o vento vai levando tudo embora.
                Em
Agora está tão longe
                   Dm
Vê, a linha do horizonte me distrai:
           G                          F
Dos nossos planos é que tenho mais saudade,
                 Em                   Dm
Quando olhávamos juntos na mesma direção.
       Bb
Aonde está você agora
         Am
Além de aqui, dentro de mim?
F G Am F G Am Intr.
 C             Cm
Agimos certo sem quere
G/B
Foi só o tempo que errou
Bb
Vai ser dificil sem você
   A4              A            Dm
Porque você está comigo o tempo todo.
Quando vejo o mar
C
Existe algo que diz:
     G/B      Am            G           F
- A vida continua e se entregar é uma bobagem
Em          A7        Dm
Já que você não está aqui,
             Dm/C      Bb     G
O que posso fazer é cuidar de mim.
       C
Quero ser feliz ao menos.
F            Bb          G
Lembra que o plano era ficarmos bem?
   Am  Em                Am   G C                F E4 E
- Ei, olha só o que eu achei:   cavalos-marinhos
Em       C
Sei que faço isso pra esquecer
   Bb
Eu deixo a onda me acertar
    Am                       F   G C
E o vento vai levando tudo embora


Enviada por Sem inscrição
Nº de acordes: 21