Sem imagem

Not An Addict

K'S Choice

268 exibições
Tom: A
[Intro]
Mmm-mmmm, mmm-mmmm, mmm-mmmm, mmm-mmmm
Bass riff1a (Intro)
G-----------------------------------------------------------------
D---------------------------------------------------------1-2-1---
A-0-0-0-0-0-0-0-0-4-4-4-4-4-4-4-4-2-2-2-2-2-2-2-2-2-2-2-2-------2-
E-----------------------------------------------------------------
  A               C#              B
Bass riff1a
(A)                 (C#m)               (B)
Mmm-mmmm, mmm-mmmm, mmm-mmmm, mmm-mmmm, Mmm-mmmm, mmm-mmmm, mmm-mmmm, mmm-mmmm
Bass riff1b (Intro)
G-----------------------------------------------------------------
D-------------------------------------------------------------1---
A-0-0-0-0-0-0-0-0-4-4-4-4-4-4-4-4-2-2-2-2-2-2-2-2-2-2-2-2-2-2---2-
E-----------------------------------------------------------------
  A               C#              B
Bass riff1b (Drum enters - bass drum + toms)
(A)                 (C#m)               (B)
Mmm-mmmm, mmm-mmmm, mmm-mmmm, mmm-mmmm, Mmm-mmmm, mmm-mmmm, mmmmmmmmmmm
[Verse] (Bass riff1b)
(A)                 (C#m)                  (B)
Breathe_ it in_ and breathe_ it out_  and_ pass_ it on_, it's al_most out_
(A)                  (C#m)              (B)
We're so_ creative_, so much more_ We're high_ a_bove_ but on the floor_
Riff1a (habit..)
e-12----
B----12-
 {harm}
[Chorus1]
           (E) Riff1a   (F#)       (A)
It's not a ha_bit_, it's cool__, I feel__ a_live_
             (E)             (F#)      (A)   (A) Riff2a
If you don't have_ it_ you're on_  the o_ther_ side___
Riff2a Guitar 1:
e---------|---------|
B---------|---------|
G---------|---------|
D---------|---------|
A-6-6-7---|-6-6-7---|
E---------|---------|
Riff2b Guitar 2:
e---------|---------|---------|---------|
B-----9---|-----9---|-----9---|-----9---|
G-9-------|-9-------|-9-------|-9-------|
D---------|---------|---------|---------|
A---------|---------|---------|---------|
E---------|---------|---------|---------|
[Verse] (Bass riff1b - Guitar Riff2a & Riff2b)
   (A)                    (C#m)
The deep_er you stick_ it_ in your_ vein_
     (B)
The_  deep_er the thoughts_, there's no_ more_ pain_
(A)               (C#m)
I'm__ in hea__ven, I'm__ a_ god__
        (B)
I'm__   e_verywhere, I_ feel__ so_ hot__
[Chorus2] (Guitar Riff2b)
           (E)          (F#)       (A)
It's not a ha_bit_, it's cool__, I feel__ a_live_
             (E)             (F#)      (A)
If you don't have_ it_ you're on_  the o_ther_ side___
             (E)       (F#)    (A)      (A) Riff2c
I'm_ not_ an_ ad_dict_, may_be_ that's_ a_ lie___
Riff2c Guitar 2:
e|---------|---------|
B|-----10--|-----10--|
G|-9-------|-9-------|
D|---------|---------|
A|---------|---------|
E|---------|---------|
A (dist.)           C#m                 B
Mmm-mmmm, mmm-mmmm, mmm-mmmm, mmm-mmmm, Mmm-mmmm, mmm-mmmm, mmm-mmmm, mmm-mmmm
[Verse] (Bass riff1b, guitar plays chords)
A                    C#m                B
It's over now__, I'm cold_, alone_  I'm just__ a per_son_  on_ my_ own__
A                  C#m                    B
Nothing_ means__ a thing__ to_ me_  Oh___ Nothing_ means a thing__ to_ me_
[Chorus3] (guitar play chords)
           E             F#         A
It's not a ha_bit_, it's cool__, I feel__ a_live_
             E               F#        A
If you don't have_ it_ you're on_  the o_ther_ side___
              E         F#      A       A
I'm_ not_ an_ ad_dict_, may_be_ that's_ a_ lie___
[Bridge]
E                 D
Free__ee_ me____, leave___ me___
B (rake plectrum on strings)
Watch_ me__ as I'm go_ing down__ and
E                 D
Free__ee_ me____, see___ me___
B (rake plectrum on strings)              C
Look_ at_ me_, I'm_  fall_ing_  and_ I'm_ fall_ing_____.
[Interlude]
E (let ring)
It is not_ a_ ha_bit_, it_ is_  cool_ I feel_ a_live__ - I feel_
Drums                                           Riff1b
It is not_ a_ ha_bit_, it_ is_  cool_ I feel_ a_live__
Riff1b (habit..)
e-12----12----
B----12----12-
 {harm}
[Chorus4] (guitar play chords + Riff1b)
           E             F#         A
It's not a ha_bit_, it's cool__, I feel__ a_live_
             E               F#        A
If you don't have_ it_ you're on_  the o_ther_ side___
              E         F#      A
I'm_ not_ an_ ad_dict_, may_be_ that's_ a_ lie___
   E               F#        A
__________________________        I'm_ not_ an_
E               F#        A
addict________________________    I'm_ not_ an_
E               F#        A
addict________________________    I'm_ not_ an_
E               F#        A
addi______i_____i_____i____ict_
E   F#   A
E   F#   A
E   F#   A
E   F#   A (Bass outro)
Bass outro
D---------------------------------------
G---------------------------------------
A-----------------0-0-0-0-0-0---------0-
E-0-0-0-0-2-2-2-2-------------0*-2*-4---
  E       F#      A           E  F# G# A
A


Enviada por Sem inscrição
Nº de acordes: 9