Tom: A/F#
Riff1a (verse)
   a__nything you      want from me
e------0---------0---------0---------0-----
B------------------------------------------
G----2---2-----2---2-----2---2-----2---2---
D--4---------4---------2---------0---------
A------------------------------------------
G------------------------------------------
   A/F#                A*        A/D
Riff1b (verse)
I  don't     know how  far       I can go
e------0---------0---------0---------0-----
B------------------------------------------
G----2---2-----2---2-----2---2-----2---2---
D------------0-------------------0---------
A--4-------------------4-------------------
E------------------------------------------
   A/C#      A/D       A/C#      A/D
Riff1c
   side   of   the     bed
e------0----------0----------------------
B--------------------------4---------4h5-
G----2---2------2---2----2---2-----2-----
D----------------------------------------
A--3---------3---------2---------2-------
E----------------------------------------
   A/C                 B7
[nc]     A/F#            A*         A/D
Is there a__nything  you want from_ me__
    A/F#               A*         A/D
My_ arms_, my life, my e_ner_gy__   I_
A/C#       A/D        A/C#   A/D
don't__ know_ how_    far__  I_ can
A/F#               A*     A/D
go__o          and e__verything_ says_
A/F#               A*          A/D
no__           But you_ know__ how_ it
A/C#    A/D             A/C#   A/D
goes__  when__  you're_ u__sed to__ your_
A/C              B7
si__de_ of_ the_ bed__
Riff2a (pre-chorus)
  And I know              you don't be-
e------0---------0---------0---------0-----
B------------------------------------------
G----2---2-----2---2-----2---2-----2---2---
D--4---------4---------5---------5---------
A------------------------------------------
E------------------------------------------
   A/F#                A/G
Riff2b (pre-chorus)
   long___ in this room        But you're 
e------------------------------------------
B------3---------3---------3---------3-----
G----2---2-----2---2-----2---2-----2---2---
D--4---------4---------3---------3---------
A------------------------------------------
E------------------------------------------
   D/F#                D/F
Riff2c (pre-chorus)
 here now so what can I do
e------------------------------------------
B------2---------2---------2---------2-----
G----2---2-----2---2-----2---2-----2---2---
D--2---------2---------1---------1---------
A------------------------------------------
E------------------------------------------
   A                   A/D#
Riff2d (pre-chorus)
e------------------------------------------
B------3---------3---------3-----------5---
G----2---2-----2---2-----2---2-------------
D--0---------0---------0-------------7--7--
A--------------------------------5/7-------
E------------------------------------------
   Dsus2                         Dsus2*
[Pre-Chorus1]
      A/F#       A/G                D/F#               D/F
and I kno__ow__   you__ don't__  be_long___ in this room__
           A                   A/D#          Dsus2        Dsus2*
But you're here____ now_    So what___ can I do__
Riff3 (Chorus)
  A                 E/G#              F#m               D
e-----------------|-----0-------0---|-----------------|-----------------|
B-----2-------2---|---0---0---0---0-|-----2-------2---|-----3-------3---|
G---2---2---2---2-|-----------------|---2---2---2---2-|---2---2---2---2-|
D-----------------|-----------------|-----------------|-0-------0-------|
A-0-------0-------|-----------------|-----------------|-----------------|
E-----------------|-4-------4-------|-2-------2-------|-----------------|
  All    that   I   am      is        all   I     was   taught  to be
  A                 F#m               D/B     D/C#      D       A/D*      D
e-----------------|-----------------|-----------------|-----------------|---------------|
B-----2-------2---|-----2-------2---|-----3-------3---|-----3-------2---|---------------|
G---2---2---2---2-|---2---2---2---2-|---2---2---2---2-|---2---2---2---2-|---------------|
D-----------------|-----------------|-----------------|-0-------0-------|-0-------------|
A-0-------0-------|-----------------|-2-------4-------|-----------------|---------------|
E-----------------|-2-------2-------|-----------------|-----------------|---------------|
  All    that   you    are    is   a  wall   between   myself                And me
[Chorus1]
A               E/G#         F#m            D
All__ that__ I_ am__ is__    All__ I__ was_ taught__ to_ be__
A                F#m               D/B      D/C#     D     A/D*  D  [nc] 
All__ that__ you are___ is__     a wall__ between_ myself_           and me__
A/F#         A*   A/D
___
A/F#         A*   A/D
                    Have you_
A/F#                A*          A/D
e__ver__ real__ly_  looked_ at_ me__
   A/F#                    A*      A/D
Or thought___ a_bout__ me_ se_cretly__  Do_
A/C#   A/D           A/C#   A/D
I___   make_ you_    won_der__ at
A/F#                    A*         A/D
all___  a__bout_    the speed_ of_ light_
    A/F#                 A*         A/D
Out_side_ our_ lit_tle__ world__ we might_  not
A/C#   A/D     A/C#     A/D
Feel__ so__   alone__   and__ I_
[Pre-Chorus2]
A/F#       A/G                D/F#               D/F
kno__ow__   you__ don't__  be_long___ in this room__
           A                   A/D#          Dsus2        Dsus2*
But you're here____ now_    So what___ can I do__
[Chorus2]
A               E/G#         F#m            D
All__ that__ I_ am__ is__    All__ I__ was_ taught__ to_ be__
A                F#m               D/B      D/C#     D           Dsus2*
All__ that__ you are___ is__     a wall__ between_ myself_  and me__ and
A               E/G#         F#m            D
All__ that__ I_ am__ is__    All__ I__ was_ taught__ to_ be__
A                F#m               D/B      D/C#     D     A/D*  D  [nc] 
All__ that__ you are___ is__     a wall__ between_ myself_           and me__
A/F#         A*   A/D
___
A/F#         A*   A/D  (slow down)
F#m (strum)


Enviada por Sem inscrição
Nº de acordes: 18