John Mayer

Something Like Olivia

John Mayer

413 exibições
Tom: G

Acordes:
C/E   x7555x
D/F#  x9777x

Intro: 
                          *                             *
e|----------------------------------|--------------------------------|
B|-----------3-------3----3---------|-----------3-------3----3-------|
G|-----------4-------5----5---------|-----------4-------5----5-------| (2x)
D|-----------5-------5----5---------|-----------5-------5----5-------|
A|----------------------------------|--------------------------------|
E|--/3---3------(3)-----------------|--/3---3------(3)---------------|

e|----------------------------------|-----------------7--5--3--------|
B|----------------------------------|--------------------------------|
G|----------------------------------|--------------/7--5--4----------| 
D|----------------------------------|--------------------------5~----| Riff na segunda vez
A|----------------------------------|--------------------------------|
E|----------------------------------|--------------------------------|


     G
Well Olivia's taken
       C                                 G
But a look like her's can be found from time to time


      C
Yeah, Olivia's taken
                                        G
But a look like her's can be found from time to time



             D                
I'm thinking something like Olivia
  C               G 
Is what I need to find


             G
There's only one man in this world
            C                            G
Who gets to sleep with her by his side


              C
There's only one man in this world
                                        G
Who gets to sleep with her by his side


             D
I'm thinking something like Olivia
  C                     G
Can keep me through the night



Base Solo: G - C - G - G   C - C - G - G   D - C - G - G


   G
Now I'm not trying to steal
C                         G
No lover away from no one man


      C
No I'm not trying to steal
                           G
No lover 'way from no one man


       D
But if Olivia herself were at my door
C                       G
I'd have to say I'd let her in


  G                    C
Something like Olivia
 G
Something like Olivia
  C
Something like Olivia
       G
Something like Olivia


        D
I keep thinking something like Olivia
 C                 G
Is what I need to find


        C
Something like Olivia
  G
Something like Olivia
   C
Something like Olivia
   G
Something like Olivia


            D
I keep thinking something like Olivia
 C                 G
Is what I need to find [fade out...]

Solo:

e|-----------------------------------------------------------------------------------------|
B|------10b12--10---8~------------8--------------------------------------------------------|
G|--------------------------------7--------5--(5)--5----7----------------------------------|
D|-----------------------------------9/7---5---7---5----7h9~-------------------------------|
A|-----------------------------------------------------------------------------------------|
E|-----------------------------------------------------------------------------------------|

e|-----------------------------------------------------------------------------------------|
B|--------10b12-10--8~--------8b10----8----------------------------------8--7--------------|
G|-----9------------------(9)---------7--------5--(5)--5----7------------------9-----------|
D|---------------------------------------9/7---5---7---5----7h9~-------9----------9/7/9--9~|
A|-----------------------------------------------------------------------------------------|
E|-----------------------------------------------------------------------------------------|

e|------------10---------------------------------------------------------------------------|
B|------10b12----10b12-10~----10b12r10----(8)~----8---pb12r10-----8------------------------|
G|------------------------------------------------------------------------5b7---5p4--------|
D|-----------------------------------------------------------------------------------5~~~--|
A|-----------------------------------------------------------------------------------------|
E|-----------------------------------------------------------------------------------------|


Enviada por Sem inscrição
Nº de acordes: 5