João Neto e Frederico

Saudade Do Caramba

João Neto e Frederico

124 exibições
Tom: F#m

Intro: F#m A9 E/G# A9


E|---------------4-2-----------------|
B|--555----5---5-----2-2p5-----------|
G|-------6---6-----------------------|
D|-----------------------------------|
A|-----------------------------------|
E|-----------------------------------|


E|---------------4-2--7--------------|
B|--555----5---5--------5------------|
G|-------6---6-----------------------|
D|-----------------------------------|
A|-----------------------------------|
E|-----------------------------------|


E                  B9
A mão no copo e o cotovelo no balcão
 F#m                A
Pedi a senha do wi-fi pro Seu João
 E                  B9
Até tentei, não consegui me segurar
 F#m                 A
Me deu vontade de saber como ela tá

 E
Cada foto que eu olho
B9
É uma dose que eu tomo
F#m
Eu dou um gole e choro
A
Eu dou um gole e choro

 E
Minha vida parou
 B9
Vi que a dela andou
F#m
É aí que eu vou bebendo
A                          B9
E o Seu João enriquecendo

                   F#m
Ai que saudade do caramba que eu tô
   A             E                B9
O coração não entendeu que acabou
                   F#m
Ai que saudade do caramba que eu tô
 A                 E
Desliga logo esse wi-fi
                 B9
Senão eu vou morrer de amor

                   F#m
Ai que saudade do caramba que eu tô
   A             E                B9
O coração não entendeu que acabou
                   F#m
Ai que saudade do caramba que eu tô
 A                 E
Desliga logo esse wi-fi
                 B9
Senão eu vou morrer de amor

[F#m A9 E/G# A9]


E|---------------4-2-----------------|
B|--555----5---5-----2-2p5-----------|
G|-------6---6-----------------------|
D|-----------------------------------|
A|-----------------------------------|
E|-----------------------------------|


E|---------------4-2--7--------------|
B|--555----5---5--------5------------|
G|-------6---6-----------------------|
D|-----------------------------------|
A|-----------------------------------|
E|-----------------------------------|


E|--555--7--4------------------------|
B|--555--5--5------------------------|
G|-----------------------------------|
D|-----------------------------------|
A|-----------------------------------|
E|-----------------------------------|


E                  B9
A mão no copo e o cotovelo no balcão
 F#m                A
Pedi a senha do wi-fi pro Seu João
 E                  B9
Até tentei, não consegui me segurar
 F#m                 A
Me deu vontade de saber como ela tá

 E
Cada foto que eu olho
B9
É uma dose que eu tomo
F#m
Eu dou um gole e choro
A
Eu dou um gole e choro

 E
Minha vida parou
 B9
Vi que a dela andou
F#m
É aí que eu vou bebendo
A                          B9
E o Seu João enriquecendo

                   F#m
Ai que saudade do caramba que eu tô
   A             E                B9
O coração não entendeu que acabou
                   F#m
Ai que saudade do caramba que eu tô
 A                 E
Desliga logo esse wi-fi
                 B9
Senão eu vou morrer de amor

                   F#m
Ai que saudade do caramba que eu tô
   A             E                B9
O coração não entendeu que acabou
                   F#m
Ai que saudade do caramba que eu tô
 A                 E
Desliga logo esse wi-fi
                 B9
Senão eu vou morrer de amor

[F#m A9 E/G# A9]

             F#m
Ai que saudade do caramba que eu tô
   A             E                B9
O coração não entendeu que acabou
                   F#m
Ai que saudade do caramba que eu tô
 A                 E
Desliga logo esse wi-fi
                 B9
Senão eu vou morrer de amor

                   F#m
Ai que saudade do caramba que eu tô
   A             E                B9
O coração não entendeu que acabou
                   F#m
Ai que saudade do caramba que eu tô
 A                 E
Desliga logo esse wi-fi
                 B9
Senão eu vou morrer de amor

F#m
Ai que saudade do caramba que eu tô
   A             E                B9
O coração não entendeu que acabou
                   F#m
Ai que saudade do caramba que eu tô
 A                 E
Desliga logo esse wi-fi
                 B9
Senão eu vou morrer de amor


Enviada por Sem inscrição
Nº de acordes: 6