Inimigos da HP

Louca Vontade

Inimigos da HP

534 exibições
|--------------5---------||--------------5---------||--------------7---------|
|-----3-3-3-3--3--5-3----||-----3-3-3-3--3--5-3----||-----5-5-5-5--5-7-5-----|                      
|------------------------||------------------------||------------------------|
|------------------------||------------------------||------------------------|

|--------------7---------|
|-----5-5-5-5--5-7-5-----|
|------------------------|
|------------------------| 

...faça no cavaquinho esta primeira parte... ;)
                     
Intro:  A7+ / A6 F#m  
: F7+                      C/E 
Já faz tempo que tudo acabou 
                            Dm 
Já faz tempo eu parei de sofrer 
          Dm7                Bb7+ 
Sei que a vida da gente mudou 
               Csus 
Você até se casou 
               F7+ 
Tá feliz, dá pra ver 
 
                        C/E 
Meu caminho eu segui por aí 
                             Dm 
Eu também tenho alguém, tô casado 
        Dm7               Bb7+ 
Mas não paro de imaginar 
                      Csus    B7/11- 
Uma vida feliz com você do meu lado 
 
         Bb7+           Am7 
Ninguém pode lutar contra o tempo 
Gm7       Am7           Bb7+ 
O tempo não parou pra nós 
                     Am7 
Eu só vim nesse encontro 
         G7 
Porque sei que o amor que eu plantei 
                 Csus 
Ainda vive em você 
        F7+     Am7     Bb7+   Bb7+ Am7  
É só saudade, saudade, saudade 
         Gm7 
Eu não posso mais lutar  
          Csus       F7+    Csus 
Contra o desejo de te ver 
         F7+      Am7       Bb7+   Bb7+ Am7  
Louca vontade, vontade, vontade 
        Gm7 
De jogar tudo pro alto 
       Csus         F7+ 
E ir embora com você


Enviada por Sem inscrição
Nº de acordes: 13