India Arie

Beautiful

India Arie

30 exibições
Tom: D
Intro: (D  C  G  C) 4x
       (G  C)
 
Verse 1 
       D         E4   
The time is right 
                G                       C 
I'm gonna pack my bags 
         D             E4                   G          C 
And take that journey down the road 
          D              E4                      G                           C 
Cause over the mountain I see the bright sun shining 
           D          E4                 G        C          G        C 
And I want to live inside the glow 
 

             Dm         E4                   G                   E4   
I wanna go to a place where I am nothing and everything 
           Dm               E4               G          E4   
That exists between here and nowhere 
Dm                    E4               G                                     E4   
I wanna go to a place where time has no consequences Oh yeah 
     Dm         E4         G    E4       G       E4   
The sky opens to my prayers                    I wanna go to 
Chorus- 
e---0---0-----0---0----0-----0----------- |  
b-----6----6----6---6-----6-----6-------- |  
g---------------------------------------- |    thoughout whole Chorus, not sure exactly how 
D---------------------------------------- |   many times, then go to end part of Chorus 
A---------------------------------------- |  
E---------------------------------------- |  
I wanna go to beautiful beautiful, beautiful x4 
e--------0---5---------------- |  
b---3-----------2------------- |  
g----------------------------- |  (end part) 
D----------------------------- |  
A----------------------------- |  
E----------------------------- |


Enviada por Sem inscrição
Nº de acordes: 5