Sem imagem

The Ibex Moon

Incantation

113 exibições
Key
= after note = vibrato
^ after note = heavy vibrato 
 = slide down
/ = slide up
+ = tap
h = hammer
p = pull
n = natural harmonic
s = pinching harmonic (squeal)
* = tremolo pick
t = trill
b = bend
|-3-| = triplet

n number above the tab = play the first part then the first finishing part
 play the first part a second time and then play the second finishing part
 etc.

Tune Down 2 Steps

Riff 1

C  ----------------------------------------------------------------------------------------
G  ----------------------------------------------------------------------------------------
Eb ----------------------------------------------------------------------------------------
Bb ----------------------------------------------------------------------------------------
F  -------------------------------------11-11-00-00-------------------------1--0h1-0----1--
C  -00-00-00-00-33-33-33-33-22-22-11-11-------------11-11-11-11-44-44-44-44----------2-----

C  -------------------------------------------------------------------------------------
G  -------------------------------------------------------------------------------------
Eb -------------------------------------------------------------------------------------
Bb -------------------------------------------------------------------------------------
F  -------------------5-4-------------11-11-00-00-------------------------1-0h1-0----1--
C  -00-00-00-00-33-33-----22-22-11-11-------------11-11-11-11-44-44-33-33---------2-----

Riff 2

C  ---------------------------------------------------------------------------
G  ---------------------------------------------------------------------------
Eb ---------------------------------------------------------3--------4--------
Bb -2------------------------4----5----3--------------------3--------4--------
F  -2------------------------4----5----3--------------------1--------2--------
C  -0------------------------2----3----1------1-b2-1--------------------------

C  ---------------------------------------------------------------------------
G  ---------------------------------------------------------------------------
Eb --------------------------------------------------------4------------------
Bb -2------------------------7----8----5-------------------4--------4----5----
F  -2------------------------7----8----5-------------------2--------4----5----
C  -0------------------------5----6----3-----3-b4-3-----------------2----3----

Riff 3A

C  -------------------------
G  -------------------------
Eb ----------------7---10---
Bb -6----6----6----7-6-10-9-
F  -6----6----6----5-6-8 -9-
C  -4----4----4------4----7-

Riff 3

C  -------------------------------------------
G  -------------------------------------------
Eb ------77---------77---------77----7---10---
Bb -6-66----66-6-66----66-6-66----66-7-6-10-9-
F  -6----------6----------6----------5-6-8 -9-
C  -4----------4----------4------------4----7-

Riff 4

C  -------------------------------------------------
G  -------------------------------------------------
Eb -------77----88----77----------77----88----11----
Bb ----66----77----66----66----66----77----66----10-
F  -55----------------------55----------------------
C  -------------------------------------------------

Riff 5

C  -------------------------------------------------------------------------------
G  -------------------------------------------------------------------------------
Eb ----------4--3-7--6----------4--3---------------4--3-7--6------8--7-10--9------
Bb -2---5--4-4--3-7--6-2---5--4-4--3-6--5-2---5--4-4--3-7--6-6--5-8--7-10--9-9--8-
F  -2---5--4-2--1-5--4-2---5--4-2--1-6--5-2---5--4-2--1-5--4-6--5-6--5-8 --7-9--8-
C  -0---3--2-----------0---3--2------4--3-0---3--2-----------4--3------------7--6-

Riff 5A

C  -------------------------------------------------------------------------------
G  ----------5--4-7--6----------5--4---------------5--4-7--6------8--7-10--9------
Eb ----------------------------------4--3--------------------4--3------------7--6-
Bb -2---5--4-----------2---5--4-----------2---5--4--------------------------------
F  -2---5--4-----------2---5--4-----------2---5--4--------------------------------
C  -0---3--2-----------0---3--2-----------0---3--2--------------------------------

Riff 6

C  --------------------------------------------------------------------------------------------------------
G  --------------------------------------------------------------------------------------------------------
Eb --------------------------------------------------------------------------------------------------------
Bb -----2---3------2---3------2---3------2---3------s2---s3------s2---s3------s2---s3-----s2---s3----------
F  ---1---1------1---1------1---1------1---1------1----1-------1----1-------1----1------1----1----2---1----
C  -1----------1----------1----------1----------1------------1------------1-----------1--------------------

Riff 6A

C  -----------------------------------------------------------------------------------------------
G  -----------------------------------------------------------------------------------------------
Eb -----2---3------2---3------2---3------2---3------2---3------2---3------2---3-----2---3---------
Bb -----------------------------------------------------------------------------------------------
F  ---1---1------1---1------1---1------1---1------1---1------1---1------1---1-----1---1---2-------
C  -1----------1----------1----------1----------1----------1----------1---------1-----------------


Riff 7

C  ---------------------------------------------------------------------
G  ---------------------------------------------------------------------
Eb ---------------------------------------------------------------------
Bb -3-2-2-2---------------------------3-2-2-2---------------------------
F  -3-2-2-2-2-1-2-1-------------2==1==3-2-2-2-2-1-2-1-------------1==2==
C  -1-0-0-0-3-2-3-2-00-00-00-00-------1-0-0-0-3-2-3-2-00-00-00-00-------


C  ----------------------------------------------------------------------
G  ----------------------------------------------------------------------
Eb ----------------------------------------------------------------------
Bb -3-2-2-2---------------------------3-2-2-2----------------------------
F  -3-2-2-2-2-1-2-1-------------2==1==3-2-2-2-2-1-2-1-------------1==s4==
C  -1-0-0-0-3-2-3-2-00-00-00-00-------1-0-0-0-3-2-3-2-00-00-00-00--------

Fill 1

C  -------------------
G  -------------------
Eb -------------------
Bb -2--------2--------
F  -2--------2--------
C  -0--------0--------

Riff 8

C  -------------------------------------------------------
G  -------------------------------------------------------
Eb -------------------------------------------------------
Bb -2--2-2-5-4-5--2-2-3--6--7--2--2-2-5-4-5--2-2-3--8--9--
F  -2--2-2-5-4-5--2-2-3--6--7--2--2-2-5-4-5--2-2-3--8--9--
C  -0--0-0-3-2-3--0-0-1--4--5--0--0-0-3-2-3--0-0-1--6--7--

Order

Riff 1 x 1
Riff 2 x 2
Riff 1 x 1
Riff 3/3A x 1
Riff 4 x 4
Riff 5/5A x 2
Riff 6/6A x 1
Riff 7 x 1
Riff 5/5A x 2
Riff 6/6A x 1
Riff 7 x 2
Riff 3/3A x 1
Riff 4 x 4
Fill 1 x 1
Riff 8 x 4


Enviada por Sem inscrição
Nº de acordes: 0