Sem imagem

Artifacts Of The Black Rain

In Flames

99 exibições
Tuning: C (tune every string down two steps from standard tuning)

. = staccato note
~ = let note ring

Intro (0:00)
|------------------------------------------------------|
|------------------------------------------------------|
|--00000000-2/3-00000000-2/3-55555555---77-55-33-55----|
|------------------------------------------------------| x2

Verse I (0:12)
|----------------------------------------|
|----------------------------------------|
|--0--0--0--3--3--3--5--5--5--1--0-1~----|
|----------------------------------------| x4
. . . . . . . . . . .

Verse II (0:38)
|----------------------------------------------------|
|----------------------------------------------------|
|--0~----------------0~-------0~---------------------|
|-------3~------1~-----------------3~------1~---3~---| x2

Verse I x2 (0:51)
Verse II x2 (1:03)
Intro x2 (1:16)
Verse I x2 (1:28)
Verse II x2 (1:40)

(1:53) (1:59) (2:06)
|-----------------------|--------|------------------------|
|-----------------------|-GUITAR-|------------------------|
|--0~---------------0---|-(REST)-|------------------------|
|-----------------------|--------|--1-1-1-1-1-1-1-1-3-3---|
. . .
(2:09)
|---------------------------------------|
|---------------------------------------|
|--7-777-777-777-77---------------------|
|-------------------7-777-777-777-77----| x2

(2:23)
|--------------------------------|
|--------------------------------|
|--7~-----3~--------------5~-----|
|------------------3~------------| x3

(2:32)
|--------------------------------|
|--------------------------------|
|--3-3-3-3-3-3-3-3-5-5-----------|
|--------------------------------|
. .

Verse I x4 (2:36)
Intro x2 (3:01)


Enviada por Sem inscrição
Nº de acordes: 0