Sem imagem

Damned In Black

Immortal

131 exibições
standard tuning


|----------------|
|----------------|
|-9~~------------|
|-9~~---2-----x-|
|-7~~---2-----x-|
|-------0-----x-|

Main Riff
|-----------------------------------------------------------------------|
|-----------------------------------------------------------------------|
|--9--9-9-9--16-16-16--16-16-16--14-14-14--14-14-14--17-17-17--17-17-17-|
|-----------------------------------------------------------------------|
|--7--7-7-7--14-14-14--14-14-14--12-12-12--12-12-12--15-15-15--15-15-15-|
|-----------------------------------------------------------------------|

|-----------------------------------------------------------------------|
|-----------------------------------------------------------------------|
|--9--9-9-9--16-16-16--16-16-16--14-14-14--14-14-14--19-19-19--19-19-19-|
|-----------------------------------------------------------------------|
|--7--7-7-7--14-14-14--14-14-14--12-12-12--12-12-12--17-17-17--17-17-17-|
|-----------------------------------------------------------------------|

Verse
p.m.................................................        
|-----------------------------------------------------------------------------|
|-----------------------------------------------------------------------------|
|-----------------------------------------------------------------------------|
|----------------------------------------------------2-2-2-2-2-2--0-0-0-0-0-0-|
|----------------------------------------------------3-3-3-3-3-3--2-2-2-2-2-2-|
|-0-0-0-0-0-0--0-0-0-0-0-0--0-0-0-0-0-0--0-0-0-0-0-0--------------------------|

     p.m............................................        
|-----------------------------------------------------------------------------|
|-----------------------------------------------------------------------------|
|-----------------------------------------------------------------------------|
|----------------------------------------------------2-2-2-2-2-2--3-3-3-5p3-3-|
|-2-2------------------------------------------------3-3-3-3-3-3--5-5-5-5-5-5-|
|-0-0---0-0-0--0-0-0-0-0-0--0-0-0-0-0-0--0-0-0-0-0-0--------------------------|


Bridge Riff
|---------------------------------------------------|
|---------------------------------------------------|
|---------------------------------------------------|
|---------------------------------------------------|
|-15----14-----15-----12-----14-----10-----12-----9-|
|---0-0----0-0----0-0----0-0----0-0----0-0----0-0---|

|------------------------------------------------|
|------------------------------------------------|
|------------------------------------------------|
|------------------------------------------------|
|-15----14-----15-----12-----14-----10----8--8--8|
|---0-0----0-0----0-0----0-0----0-0----0-10-10-10|

|---------------------------------------------------|
|---------------------------------------------------|
|---------------------------------------------------|
|---------------------------------------------------|
|-15----14-----15-----17-----14-----10-----12-----9-|
|---0-0----0-0----0-0----0-0----0-0----0-0----0-0---|

|-------------------------------------------------|
|-------------------------------------------------|
|-------------------------------------------------|
|-------------------------------------------------|
|-15----14-----15-----17-----14-----10----8--8--8-|
|---0-0----0-0----0-0----0-0----0-0----0-10-10-10-|

Chorus
|----------------------------------------------------------------------|
|----------------------------------------------------------------------|
|----------------------------------------------------------------------|
|----------------------------------------------------------------------|
|-9-9-9-9-9-9---9-9-9-9-9-9---7-7-7-7-7-7-7-7---10-10-10-10-10-10-10-10|
|-7-7-7-7-7-7-0-7-7-7-7-7-7-0-5-5-5-5-5-5-5-5-0-8--8--8--8--8--8--8--8-|

|----------------------------------------------------------------------|
|----------------------------------------------------------------------|
|----------------------------------------------------------------------|
|------------------------------------------------------7-7-7-7-7-7-7-7-|
|-9-9-9-9-9-9---9-9-9-9-9-9---10-10-10-10-10-10-10-10--5-5-5-5-5-5-5-5-|
|-7-7-7-7-7-7-0-7-7-7-7-7-7-0-8--8--8--8--8--8--8--8-0-5-5-5-5-5-5-5-5-|

2nd bridge
p.m...........  ...   ................  ....  ....
|-------------------------------------------------|
|-------------------------------------------------|
|-------------------------------------------------|
|-------------3-----2-----------------3-----2-----|
|-2-0-0-2-0-0---0-0---0-0-2-0-0-2-0-0---0-0---0-0-|
|-------------------------------------------------|

p.m...........  ...   ................  ....  ....
|-------------------------------------------------|
|-------------------------------------------------|
|-------------------------------------------------|
|-------------------------------------------------|
|-------------7-----6-----------------7-----6-6-6-|
|-6-4-4-6-4-4---4-4---4-4-6-4-4-6-4-4---4-4-------|

Clean part
|------------------------------------------------------------------------------------------|
|------------------------------------------------------------------------------------------|
|---13--13--13--12--12--12----13--13--13--12--12--12-----10-10-10-9-9-9----10-10-10-9-9-9--|
|------------------------------------------------------------------------------------------|
|-----11--11--11--10--10--10----11--11--11--10--10--10-----8--8--8-7-7-7-5---8--8--8-7-7-7-|
|-0--------------------------0--------------------------0----------------------------------|

3rd Bridge
                                              p.m...  ......   .......
|--------------------------------------------------------------------------------|
|--------------------------------------------------------------------------------|
|-13--13-13-13-12-----13--13-13-13-12--------------------------------------------|
|---------------------------------------------------0-----------------333-222----|
|-11--11-11-11-10-----11--11-11-11-10------3--------3--------3----------------3~~|
|-----------------0-0-----------------0-0--1--1-1-1-1--1-1-1-1--1-1-1------------|

last time 
|-------------------------------------------------------------------|
|-------------------------------------------------------------------|
|-13--13-13-13-12-----13--13-13-13-12-------------------------------|
|-------------------------------------------------------------------|
|-11--11-11-11-10-----11--11-11-11-10------9-9-9-10-9-7-7-7-9-7-5-2-|
|-----------------0-0-----------------0-0--7-7-7-8--7-5-5-5-7-5-3-0-|


tabbed by puppetz_85


Enviada por Sem inscrição
Nº de acordes: 0