Sem imagem

My Star

Ian Brown

106 exibições
Date: Wed, 3 Jun 98 13:14:56 UT
From: "Carol Bishop" 
Subject: b/brown_ian/*

Transcribed by David Bishop (B*) Visit
http://* to get a new Stone Roses album
released.

Please feel free to mail me with comments, improvements or suggestions, or
the Internet at the moment, hopefully this will spur someone to do more of
them.

Main Melody(Occurs throughout the whole song)-Let all the notes ring on Hint:
Use a clean guitar with a touch of chorus and delay.

(G) (G) (G) (G) (G) (G7)
E-------7---------7----------7---------7----------7---------7-------|
B--8---------8----------8---------8----------8---------6------------|
G-------------------------------------------------------------------|
D-------------------------------------------------------------------|
A-------------------------------------------------------------------|
E-------------------------------------------------------------------|
(G7) (G7) (G7) (G7) (Cmaj7) (Cmaj7)
E-------7---------7----------7---------7----------7---------7-------|
B--6---------6----------6---------6----------5---------5------------|
G-------------------------------------------------------------------|
D-------------------------------------------------------------------|
A-------------------------------------------------------------------|
E-------------------------------------------------------------------|
(Cmaj7) (Cmaj7) (Cmaj7) (Cm(maj7)) (Cm(maj7))(Cm(maj7))
E-------7---------7----------7---------7----------7---------7------|
B--5---------5----------5---------4----------4---------4-----------|
G------------------------------------------------------------------|
D------------------------------------------------------------------|
A------------------------------------------------------------------|
E------------------------------------------------------------------|
(Cm(maj7))(Cm(maj7))
E-------7---------7----|
B--4---------4---------|
G----------------------|
D----------------------|
A----------------------|
E----------------------|
Ian's Rhythm Guitar(Drop D Tuning,Occurs in the chorus"my star")
Hint: Use a real "crunch" rhythm sound, not too much distortion.
(G5) (G5) (G5) (G5) (Fsus2)(Fsus2)(Fsus2)(C/E)(C/E)(C/E)(C/E)
E-----------------------------------------------------------------------|
B-----------------------------------------------------------------------|
G-----------------------------------------------------------------------|
D--5----5----5----5----5----5----5----5----5----5----5----5-------------|
A--5----5----5----5----3----3----3----3----3----3----3----3-------------|
D--5----5----5----5----3----3----3----3----2----2----2----2-------------|
(Cm/Eb)(Cm/Eb)(Cm/Eb)
E-----------------------|
B-----------------------|
G-----------------------|
D--5----5----5----5-----|
A--3----3----3----3-----|
D--1----1----1----1-----|
Solo (improvised, all done on the D string)
Hint: Play with Distortion, an E-bow and a Roger Mayer Octavia unit.

Lyrics:
Space Exploration,
For Nuclear Stations, Nasa corrupters,
Jewelled abductors,
Space exploration, expedition to the stars,
On a military mission on a military journey to Mars.
I see you in my star,
I see you in my star,
I see you in my star, my star,
I see you in my star, my star,
I see you in my star, my star,
Solar system bases,
The New World order, lust for spacedust,
Forming galaxy borders,
Ever seeking new life,
Interplanetary war,
Seeking satellite's and new heights,
Satellite's and new heights, home,
I see you in my star
I see you in my star,
I see you in my star, my star,
I see you in my star, my star,
I see you in my star, my star,
Space Exploration,
For Nuclear Stations, Nasa corrupters,
Jewelled abductors,
Space exploration, expedition to the stars,
On a military mission on a military journey to Mars.
To boldly go where no mans ever been before.
I see you in my star
I see you in my star,
I see you in my star, my star,
I see you in my star, my star,
I see you in my star, my star.
Cheers,
Dave
B*


Enviada por Sem inscrição
Nº de acordes: 8