Guns N`Roses

Patience V2

Guns N`Roses

5.601 exibições
* afine em 1/2 tom abaixo

Intro: C G A D 
C G A D
C G C Em 
C G D

C
Shed a tear cause I'm missing you
G
I'm still all right to smile
A                             D
Girl I think about you every day now
C
Was a time when I wasn't sure 
       G
But you set my mind at ease
A			      D
There is no doubt, you're in my heart now
C   	     G
Said woman take it slow
         C 	        Em
It will work it self out fine
C 	       G            D      
All we need is just a little patience
C	     G
 Said sugar make it slow and 
C                   Em
It'll come together fine
C 	       G            D
All we need is just a little patience
D D4 D D9 D
Patience
D D4 D D9 D
Patience

Play the same as first verse

Lyrics:
C
Sit here on the stairs
G
Cause I'd rather be alone If
A                                           
I can't have you right now
             D
I'll wait dear
C
Sometimes I get so tense
G
But I can't speed up the time
A			                   D
You know love, there's one more thing to consider

Back to chorus

Solo

--8p7--8----8/10--8----|--------------------------|--8p7--8--8/10--10/12---|
-----------------------|--10/12---12--10--8-8-----|------------------------|
-----------------------|--------------------------|------------------------|
-----------------------|--------------------------|------------------------|
-----------------------|--------------------------|------------------------|
-----------------------|--------------------------|------------------------|

--8p7--8--8/10--8------|--------------------------|-10/12-10-10-----12/14--| 
-----------------------|--10/12---12--10--8-8-----|------------------------|
-----------------------|--------------------------|------------------------|
-----------------------|--------------------------|------------------------|
-----------------------|--------------------------|------------------------|
-----------------------|--------------------------|------------------------|

--12-10h12----10-------|-------------------------|-------------------------|
-----------------------|------5--8---------------|--------------------5--8-|
-----------------------|---7--------7----5--7----|---4--8----------7-------|
-----------------------|-------------------------|-7------7----5-----------|
-----------------------|-------------------------|-------------------------|
-----------------------|-------------------------|-------------------------|

-----------------------|-------------------------|-------------------------|
--------------8-10-8---|-8-10^--8-10-8-----------|-8--10/12--10-10~~~------|
--7--5--7/9----------9-|----------------9--------|-------------------------|
-----------------------|-------------------------|-------------------------|
-----------------------|-------------------------|-------------------------|
-----------------------|-------------------------|-------------------------|

-----------------------|-------------------------|-------------------------|
-----------------------|--7^-7~~-----------------|--7^-7~~-----------------|
--11-9-----------------|-------------------------|-------------------------|
----------7-----7------|----------7-----7--------|----------7-----7--------|
------------7h8----5---|------------7h8-----5----|------------7h8-----5----|
-----------------------|-------------------------|-------------------------|

-----------------------|
---7^-7~~~~~~~~~~------|
-----------------------|
-----------------------| 
-----------------------|
-----------------------|

D	    D/F#  
little patience
        G
Mhh Yeah
D               D/F#           
I've been walking the streets tonight
G
Just trying to get it right
D                D/F#       
It's hard to see with so many around
G
Y'know I don't like beng stuck in the ground
D                D/F#           
And the streets don't change but maybe the name
G
I ain't got time for these games
       D
Cause I need you 
D/F#             G
Yeah Yeah, but I need you 
        F
Uh I need you 
         G
Woh I need you 
         D
Oh this time

FINAL
            (TOCAR NO FIM
             DO DEDILHADO)
                     D
|-3-2------------------|
|-----3----------------|
|-------2--------------|
|---------5P4----------|
|-------------5--------|
----------------5------|


Enviada por Sem inscrição
Nº de acordes: 12