Gorillaz

Feel Good Inc.

Gorillaz

2.903 exibições
Tuning: DADGBE 


Bassguitar plays this riff throughout the song:


g--------------------------------------------------|
d--------------------------------------------------|
a-6--6-8-9--14-13--11--11-14-13--9-6~--------------|
d--------------------------------------------------|

              or

g--------------------------------------------------
d--------------------------------------------------
a-6--6-8-9--14-13--11--11-14-13--9-6~--------------
d--------------------------------------------------

2nd Part
g--------------------------------------------------
d--------------------------------------------------
a---6-4--------------------------------------------
d-------8-6-4-1~-----------------------------------




e|---------------------------------------------------------------------------|
B|---------------------------------------------------------------------------|
G|---------------------------------------------------------------------------|
D|---------------------------------------------------------------------------|
A|---------2-1---------------------------------------------------------------|
D|-1-1-3-4---------6-6-9-8-4-1-/13-------------------------------------------|


guitar plays this:

e|-11----11------------------------------------------------------------------|
B|----11----11---14---14----12----12-----------------------------------------|
G|------------------13---13----13-----8-/10\8--/-----------------------------|
D|---------------------------------------------------------------------------|
A|---------------------------------------------------------------------------|
D|---------------------------------------------------------------------------|


City's breaking down on a camel's back.
They just have to go 'cos they dont hold back
So all you fill the streets it's appealing to see
You wont get out the county, 'cos you're bad and free
You've got a new horizon It's ephermal style.
A melancholy town where we never smile.
And all I wanna hear is the message beep.
My dreams, they've got to kiss, because I dont get sleep, no..

Bass plays this before next verse

e|---------------------------------------------------------------------------|
B|---------------------------------------------------------------------------|
G|---------------------------------------------------------------------------|
D|---------------------------------------------------------------------------|
A|---------------------------------------------------------------------------|
D|--9-8-7-6-4-1-X-X----------------------------------------------------------|


D#m                A#m    
Windmill, Windmill for the land.
G#m           Bbm
Learn forever hand in hand
D#m            A#m
Take it all in on your stride
G#m              Bbm
It is sticking, falling down
D#m           A#m
Love forever love is free
G#m                 Bbm
Let's turn forever you and me
D#m                A#m
windmill, windmill for the land
  G#m
Is everybody in?


play this riff three times before next verse

e|---------------------------------------------------------------------------|
B|---------------------------------------------------------------------------|
G|--6-6-6-6-6-6--------------------------------------------------------------|
D|--6-6-6-8-6-8--------------------------------------------------------------|
A|--4-4-4-4-4-4--------------------------------------------------------------|
D|---------------------------------------------------------------------------| X3

Laughing gas these hazmats, fast cats,
Lining them up-a like ass cracks,
Ladies, homies, at the track
its my chocolate attack.
Shit, I'm stepping in the heart of this here
Care bear bumping in the heart of this here
watch me as I gravitate
hahahahahahaa.
Yo, we gonna go ghost town,
this motown,
with yo sound
you're in the place
you gonna bite the dust
Cant fight with us
With yo sound
you kill the INC.
so dont stop, get it, get it
until you're cheddar header.
Yo, watch the way I navigate

Windmill, Windmill for the land.
Learn forever hand in hand
Take it all in on your stride
It is sticking, falling down
Love forever love is free
Let's turn forever you and me
Windmill, windmill for the land
Is everybody in?

Dont stop, get it, get it
we are your captains in it
steady,
watch me navigate,
ahahahahahhaa.
Dont stop, get it, get it
we are your captains in it
steady, watch me navigate


   D#m    A#m  G#m   Bbm
e|--6------6----4----1---------------------------------------------------------|
B|--7------6----4----2---------------------------------------------------------|
G|--8------6----4----3---------------------------------------------------------|
D|--8------8----6----3---------------------------------------------------------|
A|--6------8----6----1---------------------------------------------------------|
D|---------8----6--------------------------------------------------------------|

Um abraço para galera Oz
Cacah eu te amo!


Enviada por Sem inscrição
Nº de acordes: 6