Sem imagem

Greensleeves

Francisco Tarrega

1.260 exibições
Trilha 1 
                                                              
E||---------------||-----------0---1h0--|-------------------| 
B||---------------||---1----3-----------|--3----0--------0--| 
G||------------2--||*-------------------|----------0---2----| 
D||---------------||*-------------------|-------------------| 
A||---------------||---0-------3--------|-------------------| 
E||---------------||--------------------|--3-------0--------| 
 
 
                                                                                
-------------------|------------------|----------0---1-0--|-------------------| 
--1----------------|--0---------------|--1----3-----------|--3----0--------0--| 
-------2--2---1-2--|-------1-------2--|-------------------|----------0---2----| 
-------------------|----------2-------|-------------------|-------------------| 
--0-------3--------|--2---------------|--0-------3--------|-------------------| 
-------------------|----------0-------|-------------------|--3-------0--------| 
 
 
                                                               
--------------------|--------------------||------------------| 
--1---0-------------|--------------------||------------------| 
--------2--1-----1--|--2-------------2--*||--2---------------| 
---------------4----|--------2----------*||--------2---------| 
--0-----------------|--0--3-----0--------||--0--3-----0------| 
-----------0--------|--------------------||------------------| 
 
 
                                                                              
--3------3---2-0--|-------------------|-------------------|-----------------| 
------------------|--3----0--------0--|--1----------------|--0--------------| 
------------------|----------0---2----|-------2--2---1-2--|-------1---------| 
------------------|-------------------|-------------------|----------2------| 
--3------3--------|-------------------|--0-------3--------|--2--------------| 
------------------|--3-------0--------|-------------------|----------0------| 
 
 
                                                                                 
--3------3---2-0--|-------------------|--------------------|------------------|| 
------------------|--3----0--------0--|--1---0-------------|------------------|| 
------------------|----------0---2----|--------2--1-----1--|--2---------------|| 
------------------|-------------------|---------------4----|--------2---------|| 
--3------3--------|-------------------|--0-----------------|--0--3-----0------|| 
------------------|--3-------0--------|-----------0--------|------------------|| 


Enviada por Sem inscrição
Nº de acordes: 0