Fernandinho

Ainda Que A Figueira

Fernandinho

23.989 exibições
Tom: F#m
Intro: (F#m   A9 E) 2x

Verso 1:
F#m     E
  Tu és a minha porção
Bm       D9 
  Tu és a minha herança
F#m        E               Bm             D9 
  Tu és o meu socorro nos dias de tribulação

Pré-Refrão:
A9                   E
  Mesmo que os meus pais me deixem
Bm            D9
  Mesmo que amigos me traiam
A9                     E          Bm          D9
  Eu sei que em seus braços eu encontro salvação

Refrão:
 A9                   E
Ainda que a figueira não floreça
 Bm                      D9
Ainda que a videira não dê o seu fruto
 A9                    E
Mesmo que não haja alimento nos campos
      G             D9
Eu me alegrarei em Ti (2x)

(Intro)

(Verso 1)

(Pré-Refrão)

(Refrão)

Base Solo: (Bm   A9 E) 3x
           (Bm   A9 E  D9)

e----------------------------------
B----------------------------------
G-----2-2-----2-----2--2/4-1-2-2-2- (2x)
D-2/4-----2/4----2/4---------------
A----------------------------------
E----------------------------------


e--------------------------
B---10-12b-12-10-9---------
G-9----------------9-11---- (2x)
D--------------------------
A--------------------------
E--------------------------


e------9--10b-9-------------
B---10------------10-9------
G-9---------------------11--
D---------------------------
A---------------------------
E---------------------------


Enviada por Sem inscrição
Nº de acordes: 6