Europe

The Final Countdown

Europe

7.021 exibições
Intro: F#m
Riff1 (4x)
F#m   D    Bm    E  (&Lead1)
F#m   D    Bm    E
F#m   D    Bm    E
F#m   D    Bm    E
F#m  G#/E  A  D  C#
F#m   D    Bm    E  (&Lead1, drums, bass, guitar)
F#m   D    Bm    E
F#m   D    Bm    E
F#m   D    Bm    E
F#m  G#/E  A  D  C#
F#m  (&Lead2)

Riff1 Intro (Spacy synth)
e-------------
B-------------
G-4///11~~~---
D-------------
A-2///9~~~~---
E-------------
Lead1 (Intro, synth)
|------9--7--9---------|------10--9--10--9--7----|------10--9--10----------|------7------7---------7-----|
|-----------------7----|-------------------------|-------------------7-----|---------10-----10--9-----10-|
|----------------------|-------------------------|-------------------------|-----------------------------|
|----------------------|-------------------------|-------------------------|-----------------------------|
|----------------------|-------------------------|-------------------------|-----------------------------| 4x
|----------------------|-------------------------|-------------------------|-----------------------------|
|---------------7---------7-|--9--7-------------10----|--9--------9---10---9--7-|--9----------------|
|--10-----9-10---------10---|--------10-9--7----------|-------------------------|-------------------|
|---------------------------|-------------------------|-------------------------|-------------------|
|---------------------------|-------------------------|-------------------------|-------------------|
|---------------------------|-------------------------|-------------------------|-------------------| 1x
|---------------------------|-------------------------|-------------------------|-------------------|
Lead2 (End of intro)
e-------2--0-----5--4--0--2-----
B-------------2-----------------
G-------------------------------
D-------------------------------
A-------------------------------
E-------------------------------
  F#m

Bass riff1 (Intro)
|---------------------|-------------------|--4----------------|--------------------
|--4------------2-----|--0----------------|-------------------|--2--------3--------
|---------------------|-------------------|-------------------|-------------------- (4x)
|---------------------|-------------------|-------------------|--------------------
   F#           E        D                   B                   E        F
|-----------1--------|--2-----------------|--------------------|-------------------|
|--4-----------------|-----------0--------|--------------------|-------------------|
|--------------------|--------------------|---4----------------|-------------------| (1x)
|--------------------|--------------------|--------------------|-------------------|
   F#       G#          A        D            C#
[Verse1]
F#m                                                    Bm
    We're leaving together__,           But still it's fare__well__
F#m                                     F#m      G#/E              A
    And maybe we'll come ba__a__ack__,        To earth___, who can tell___?
D                    E                  A        G#/E    F#m    E       D
    I guess there is no one to blame__     We're leaving ground___
                                                               (leaving ground)
                     C#m                   E // // /
    Will things ever be__e the same again_____?
[Chorus] (&Lead1)
[nc]                   F#m                D      Bm      E
It's__ the__ fi__nal__ count__down____
                       F#m                D      Bm      E
       the__ fi__nal__ count__down____                    Oh__Ooh____
[Verse2]
F#m                                                       Bm
    We're heading for Ve__nus__, (Venus)     and still we stand__ tall__
F#m                                     F#m      G#/E           A
    Cause maybe they've seen__ us__          and welcome_ us__ all__ yeah
D                E                    A       G#/E         F#m   E     D
    With so many light years to go__      and things to be found
                                                                (to be found)
                        C#m              E      // // /
    I'm sure that we'll all____ miss her so__o__
[Chorus] (&Lead1)
[nc]                   F#m                D      Bm      E
It's__ the__ fi__nal__ count__down____
                       F#m                D      Bm      E
       the__ fi__nal__ count__down____
                       F#m           G#/E      A                D
       the__ fi__nal__ count__down____
                                    (fi__nal__ count__down____)
C#                                   F#m   (drum fills)
Oh_________             Oh_Oh______  Oh______
[Solo] (Solo1)
B5   A5   D5   G5
E5   A5   B5   F#5
B5   A5   D5   G5
E5   A5   B5   C#5
Solo1
   Bm                              A                              D
||-----------------------------------------------------------------------------
||0h3h7p0h3h7p0h3h7p0h3h7p0h3h7p0h2h5h8p2h5h8p2h5h8p2h5h8p2h5h8p2/3h7h10p3h7h10
||.----------------------------------------------------------------------------
||.----------------------------------------------------------------------------
||-----------------------------------------------------------------------------
||-----------------------------------------------------------------------------
      t     t     t     t     t       t     t     t     t     t       t      t
                                                                          ___
                                                                         |1.
                      G                       Em                         | A 
-------------------------------------------------------------------------|----
p3h7h10p3h7h10p3h7h10-8-8------------------------------------------------|----
--------------------------12h14h16p14-12\11h12p11--------12-12-12-11-9---|----
-------------------------------------------------14p12h14-------------12-|-12-
-------------------------------------------------------------------------|----
-------------------------------------------------------------------------|----
     t      t      t
                                  c                          ___
                                                           |2.
       Bm                      F#                          | A          Bm  
----------------------------------------------------------||----------------
------10b12-10b12r10--------------------------------------||10b12r10--------
--------------------9-11--9-11-12p11p9--11p9p7--9p7p6-7-9.||--------7-9-11_-
11-9----------------------------------12------11-----9---.||----------------
----12----------------------------------------------------||----------------
----------------------------------------------------------||----------------
 C#
----------|
----12----|
-11b13r11-|
----------|
----------|
----------|
F#5!   C#5! D5!           B5!   D5! e5!  (&Lead1)
F#5!   C#5! D5!           B5!   D5! e5!  (&Lead1, more drum)
                       F#m           G#/E      A                D
       the__ fi__nal__ count__down_______
C#
Oh__Oh______
[Chorus] (&Lead1)
[nc]                   F#m                D      Bm      E
It's__ the__ fi__nal__ count__down____
                       F#m                D      Bm      E
       the__ fi__nal__ count__down____
                       F#m           G#/E      A                D
       the__ fi__nal__ count__down____
                                    (fi__nal__ count__down____)
C#                /      /     /   /
Oh_________       It's__ the__ fi__nal__
F#m                D                      Bm       E
count__down____,      we're__ lea__ving__ to__get__her_____
                 F#m              D                        Bm        E
                                    we'll_ all_ miss_ her_ so___o___
(the__ fi__nal__ count__down____)
                       F#m           G#/E      A                D
It's__ the__ fi__nal__ count__down____
                                    (fi__nal__ count__down____)
C#                /      /     /   /
Oh_________       It's__ the__ fi__nal__
F#m 
count__down____
Fade out..


Enviada por Sem inscrição
Nº de acordes: 25