Darvin

Pensa Em Mim

Darvin

6.871 exibições
Tom: Bm

Intro: 

   Bm              G             D         A
e|-------2---------3---3---------2---2-----0---0-------|
B|-----------3-------------3-----------3---2-------2---|
G|-----4-------4-----0-------0-----2-------2---------2-|  (2x)
D|---4---------------------------0---------------------|
A|-2-----------------------------------------0---------|
E|-----------------3-----------------------------------|

OBS: Antes de tocar as últimas duas notas de cada acorde, dê uma breve pausa. 
Antes de começar um acorde dê também uma pausa breve.

A música toda nesta seqüência:

(Bm - G - D - A)

Inspiração dos meus sonhos, não quero acordar
Quero ficar só contigo, não vou poder voar 
Por que parar para refletir se o meu reflexo é você?
Aprendendo uma só vida, compartilhando prazer 
Por que parece que na hora eu não vou aguentar? 
Se eu sempre tive força e nunca parei de lutar
Como nos filmes, no final tudo vai dar certo
Quem foi que disse que pra estar junto, precisa estar perto?

Refrão (Batida): 
(Bm - G - D - A)

Pensa em mim, que eu tô pensando em você
e me diz o que eu quero te dizer,
Vem pra cá pra eu ver que juntos estamos
e te falar mais uma vez que te amo.

Repete a intro só UMA vez:

   Bm              G             D         A
e|-------2---------3---3---------2---2-----0---0-------|
B|-----------3-------------3-----------3---2-------2---|
G|-----4-------4-----0-------0-----2-------2---------2-|
D|---4---------------------------0---------------------|
A|-2-----------------------------------------0---------|
E|-----------------3-----------------------------------|

(Bm - G - D - A)
O tempo que passamos juntos vai ficar pra sempre
Intimidades e brincadeiras só a gente entende
Pra quem fala que namorar é perder tempo, eu digo:
- Há muito tempo eu não cresci o que cresci contigo.
Juntos no balanço da rede sob o céu estrelado, 
sempre acontece: o tempo pára quando estou do seu lado.
A noite chega, eu fecho os olhos, é você que eu vejo, 
como eu queria estar contigo eu paro e faço um desejo:

Refrão: (3x)
(Bm - G - D - A)

Pensa em mim, que eu tô pensando em você
e me diz o que eu quero te dizer,
Vem pra cá pra eu ver que juntos estamos
e te falar mais uma vez que te amo.

Solo na mesma base: (Bm - G - D - A)

e|-7/10-7-7-5-5-3/5-3-3-3~- |  riff1

e|-7/10-7-7-5-5-5~--------- |  riff2

Riff 1 -|
        | (2x)
Riff 2 -|

Refrão (Batida): (2x)
(Bm - G - D - A)

Pensa em mim, que eu tô pensando em você
e me diz o que eu quero te dizer,
Vem pra cá pra eu ver que juntos estamos
e te falar mais uma vez que te amo.

(Bm - G - D - A)


Enviada por matheus
Nº de acordes: 4