CPM 22

Não Vá Embora

CPM 22

778 exibições
//Intro

Riff 1
E|-----------------------------------------------------------------------------|
B|-----------------------------------------------------------------------------|
G|-----------------------------------------------------------------------------|
D|-8-------8----8-------8-------8~-----8~--------------------------------------|(repete 2x)
A|---6-9-6---6-9---6-9-6--6-9-6---6-9-6---6-9/11-9~~~--11b---11b-11b-9~--------|
E|-----------------------------------------------------------------------------|
                                              (ae galera eu acho que e +ou- assim)
       G#5 - B5 - F#5 - E5 - G#5 - B5                    por:Marco Antônio


G#5  B5   F#5
Só Mais Uma Vez...
G#5  B5   F#5
Denovo Talvez...
G#5  B5   F#5             G#5  B5   F#5
Ti Ver Acordar Nem Que Seja Pela Ultima Vez...
E5                             G#5
Tantas Coisas Que Eu Quero... Back-(Falar Pra Você)...
E5                  
Mais Jamais Consegui... 
B5
Porque...

//Refão...

G#5     E5                     B5
   Não Vá Embora...    Back-(Fique Por Favor)...
G#5    E5                      B5
   Não Vá Agora...     Back-(Esquessa o Que Ficou)...
G#5    E5                      B5     G#5 E5 B5
   Pra Traz Da Hora... Back-(Quem Nunca Te Amou)...

G#5 - B5 - F#5...

Riff 1
E|-----------------------------------------------------------------------------|
B|-----------------------------------------------------------------------------|
G|-----------------------------------------------------------------------------|
D|-8-------8----8-------8-------8~-----8~--------------------------------------|(repete 2x)
A|---6-9-6---6-9---6-9-6--6-9-6---6-9-6---6-9/11-9~~~--11b---11b-11b-9~--------|
E|-----------------------------------------------------------------------------|

         G#5 - B5 - F#5 - E5 - G#5 - B5

G#5 - B5 - F#5

        G#5  B5   F#5
Seu Telefone Tocou...
        G#5  B5   F#5
Procura Alguem...
G#5  B5   F#5 
Com QUem POssa Falar Nem Que Seja Ultima Vez...
E5                              G#5
Tantas Coisas Que Eu Quero... Back-(Falar Pra Você)...
E5                  
Mais Jamais Consegui... 
B5
Porque...

//Refão...

G#5     E5                     B5
    Não Vá Embora...    Back-(Fique Por Favor)...
G#5     E5                     B5
    Não Vá Agora...     Back-(Esquessa o Que Ficou)...
G#5     E5                     B5        G#5 E5 B5
    Pra Traz Da Hora... Back-(Quem Nunca Te Amooooooouuuuu)...

G#5  - E5 - B5...

Riff 2
                  3X        
e|-1111111111h-1111111111h-11h11h11h-9--9h9h9h9h|

4x Eh Re Ah Ra.....


Eh Aki eh o Fabio essa musica vai para vc Jessica...,
Eh Aki eh o Flavio essa musica vai tb para vc Samya


Enviada por Sem inscrição
Nº de acordes: 6