Sem imagem

Waltz In Em

Carulli

258 exibições
E||--0-------0---|--0-------0---|--2---3---2---|--3---2---0---|--0-------0---| 
B||----0---0---0-|----0---0---0-|----0---0---0-|----0---0---0-|----0---0---0-| 
G||------0-------|------0-------|--------------|--------------|------0-------| 
D||--2-----------|--2-----------|--1-----------|--2-----------|--2-----------| 
A||--------------|--------------|--------------|--------------|--------------| 
E||--------------|--------------|--------------|--------------|--------------| 
 
 
                                                                       
--0-------0---|--2---3---2---|--0------|--0-------0---|--0-------0---| 
----0---0---0-|----0---0---0-|--0------|----0---0---0-|----0---0---0-| 
------0-------|--------------|--0------|------0-------|------0-------| 
--2-----------|--1-----------|--2------|--2-----------|--2-----------| 
--------------|--------------|---------|--------------|--------------| 
--------------|--------------|---------|--------------|--------------| 
 
 
                                                                            
--2---3---2---|--3---2---0---|--0-------0---|--0-------0---|--2---3---2---| 
----0---0---0-|----0---0---0-|----0---0---0-|----0---0---0-|----0---0---0-| 
--------------|--------------|------0-------|------0-------|--------------| 
--1-----------|--2-----------|--2-----------|--2-----------|--1-----------| 
--------------|--------------|--------------|--------------|--------------| 
--------------|--------------|--------------|--------------|--------------| 
 
 
                                                                       
--0------|--------------|----------0---|--2---3---2---|--3---2---0---| 
--0------|----0---0---0-|----0---0---0-|----0---0---0-|----0---0---0-| 
--0------|--------------|------0-------|--------------|--------------| 
--2------|--1-------1---|--2---5-------|--1-----------|--2-----------| 
---------|--6---2---6---|--7-----------|--------------|--------------| 
---------|------7-------|--------------|--------------|--------------| 
 
 
                                                                       
--------------|----------0---|--2---3---2---|--0------|--------------| 
----0---0---0-|----0---0---0-|----0---0---0-|--0------|----0---0---0-| 
--------------|------0-------|--------------|--0------|--------------| 
--1-------1---|--2---5-------|--1-----------|--2------|--1-------1---| 
--6---2---6---|--7-----------|--------------|---------|--6---2---6---| 
------7-------|--------------|--------------|---------|------7-------| 
 
 
                                                                            
----------0---|--2---3---2---|--3---2---0---|--------------|----------0---| 
----0---0---0-|----0---0---0-|----0---0---0-|----0---0---0-|----0---0---0-| 
------0-------|--------------|--------------|--------------|------0-------| 
--2---5-------|--1-----------|--2-----------|--1-------1---|--2---5-------| 
--7-----------|--------------|--------------|--6---2---6---|--7-----------| 
--------------|--------------|--------------|------7-------|--------------| 



Enviada por Sem inscrição
Nº de acordes: 0