Sem imagem

This Mortal Coil

Carcass

100 exibições
Tune down 2.5 steps to B) 
 
riff 1 
|------------------------------------------------------------ 
|----5---4-------5---4---2-------5---4-------5---4---2---1--- 
|--7---7---5---7---7---5---3---7---7---5---7---7---5---3---2- 
|0-----------0---------------0-----------0------------------- 
|------------------------------------------------------------ 
|------------------------------------------------------------ 
 
----------------------------------------------------| 
----5---4-------5---4---2-------5---4-------5---4---| 
--7---7---5---7---7---5---3---7---7---5---7---7---5-| 
0-----------0---------------0-----------0-----------| 
----------------------------------------------------| 
----------------------------------------------------| 
 
riff 2 
|--------| 
|--------| 
|2-6-5---| 
|2-6-5-6-| 
|0-4-3-6-| 
|------4-| 
 
riff 1 guitar 2 (played with riff 1) 
|---------------------------------------------------------- 
|---------------------------------------------------------- 
|-----9----7--------9----7---5--------9----7--------9----7- 
|--10---10---9---10---10---9---7---10---10---9---10---10--- 
|0-------------0-----------------0-------------0----------- 
|---------------------------------------------------------- 
 
----------------------------------------------------------------------| 
----------------------------------------------------------------------| 
--5---4--------9----7--------9----7---5--------9----7--------9----7---| 
9---7---5---10---10---9---10---10---9---7---10---10---9---10---10---9-| 
----------0-------------0-----------------0-------------0-------------| 
----------------------------------------------------------------------| 
 
riff 3 
|---------------------------------------------| 
|---------------------------------------------| 
|---------------------------------------------| 
|7------------5/7---3-3-7------------7/9---5-5-| 
|7------------5/7---3-3-7------------7/9---5-5-| 
|5-555-555-55-3/5-0-1-1-5-555-555-55-5/7-0-3-3-| 
   ... ... ..     .       ... ... ..     . 
 
riff 4 (two guitars) (bass follows riff 3) 
|---------------------------------------------------------| 
|---------------------------------------------------------| 
|555-777-999-777-55-4-5-4-2~--555-777-999-000-77-5-7-5-4~-| 
|777-999-000-999-77-5-7-5-3~--777-999-000-222-99-7-9-7-5~-| 
|---------------------------------------------------------| 
|---------------------------------------------------------| 
         10's                         10's 12's 
 
riff 5 
|---------------------------------------------------------| 
|---------------------------------------------------------| 
|4---/8-7^--4-----5--4--7--8--4---/8-----4-----5-----7--8-| 
|4---/8-7^--4--5--5--4--7--8--4---/8-7h^-4--5--5--7--7--8-| 
|2---/6-5^--2--5--3--2--5--6--2---/6-----2--5--3--7--5--6-| 
|--------------3----------------------------3-----5-------| 
 
riff 6 
|----------------------------------------------------------------| 
|----------------------------------------------------------------| 
|----5---4-5-454-----------4-2420----5---4-5-454-----------7-5750| 
|--7---7---------5-3-5-3-2---------7---7---------5-3-5-3/5-------| 
|0--------------------------------0------------------------------| 
|----------------------------------------------------------------| 
 
...and of course, on the pauses, he is hitting an 'A' power chord. 
 
Solo: 
|-----------------------------------------------------------------| 
|------------------------------------------------12-13-15-13-12---| 
|---------------------------------------------14----------------14| 
|--------------12-13-15-12h13p12-----------14---------------------| 
|/15~-12-13-15-------------------13/15~-12------------------------| 
|-----------------------------------------------------------------| 
      '  '  ' 
|----------------------------------17b(19)rp12-15-17b(19)-15-12-------17------| 
|15brbr-12h13h15p13p12h13p12------------------------------------15-12----17br~| 
|----------------------------14br~--------------------------------------------| 
|-----------------------------------------------------------------------------| 
|-----------------------------------------------------------------------------| 
|-----------------------------------------------------------------------------| 
 
|-------------------------------------12h19p12----12h19p12----12h19p12-| 
|15h19p15-14h15p14-12~--14-15-17b~-17----------17----------17----------| 
|----------------------------------------------------------------------| 
|----------------------------------------------------------------------| 
|----------------------------------------------------------------------| 
|----------------------------------------------------------------------| 
 
|---12h19p12-19-19br19~----------------------------------| 
|17---------------------17br-17-15-14-15-12h14p12\10-12~-| 
|--------------------------------------------------------| 
|--------------------------------------------------------| 
|--------------------------------------------------------| 
|--------------------------------------------------------| 
 
|---------12-14-17-15-14h15p14-------17-17b(19)r17~17b(20)r17~| 
|12-14-15----------------------17-15--------------------------| 
|-------------------------------------------------------------| 
|-------------------------------------------------------------| 
|-------------------------------------------------------------| 
|-------------------------------------------------------------| 
 
_______________________________________________________ 
Contribuição: Leon Felipe Wurr(leontinoseixas@hotmail.com) 


Enviada por Sem inscrição
Nº de acordes: 0