Sem imagem

El Vago

Carajo

88 exibições
Intro 
D|--------------------------------------|------------------------------------| 
A|--------------------------------------|------------------------------------| 
F|--------------------------------------|------------------------------------|  x4
C|--4-4-4-2-2-2-4-4-4--12-12-12--9-9-9--|--4-4-4-2-2-2-4-4-4-7-7-7---7-9-7-9-| 
G|--4-4-4-2-2-2-4-4-4--12-12-12--9-9-9--|--4-4-4-2-2-2-4-4-4-7-7-7---7-9-7-9-| 
C|--4-4-4-2-2-2-4-4-4--12-12-12--9-9-9--|--4-4-4-2-2-2-4-4-4-7-7-7---7-9-7-9-| 

Verso 
D|----------------------------------------------------------------------| 
A|----------------------------------------------------------------------| 
F|-------------------7-7-7-7-7-7-7-7-------------------9-9-9-9-9-9-9-9--| 
C|--4-4-4-4-4-4-4-4--7-7-7-7-7-7-7-7--7-7-7-7-7-7-7-7--9-9-9-9-9-9-9-9--| x2
G|--4-4-4-4-4-4-4-4--5-5-5-5-5-5-5-5--7-7-7-7-7-7-7-7--7-7-7-7-7-7-7-7--| 
C|--4-4-4-4-4-4-4-4-------------------7-7-7-7-7-7-7-7-------------------| 
pm.....................................................................

('el es feliz llendo a recitales' )
D|----------------------------------------------------------------------| 
A|----------------------------------------------------------------------| 
F|-------------------7-7-7-7-7-7-7-7-------------------9-9-9-9-9-9-9-9--| x2
C|--4-4-4-4-4-4-4-4--7-7-7-7-7-7-7-7--7-7-7-7-7-7-7-7--9-9-9-9-9-9-9-9--| 
G|--4-4-4-4-4-4-4-4--5-5-5-5-5-5-5-5--7-7-7-7-7-7-7-7--7-7-7-7-7-7-7-7--| 
C|--4-4-4-4-4-4-4-4-------------------7-7-7-7-7-7-7-7-------------------| 

D|--------------------------------------|------------------------------------| 
A|--------------------------------------|------------------------------------| 
F|--------------------------------------|------------------------------------| 
C|--4-4-4-2-2-2-4-4-4--12-12-12--9-9-9--|--4-4-4-2-2-2-4-4-4-7-7-7---7-9-7-9-| x2
G|--4-4-4-2-2-2-4-4-4--12-12-12--9-9-9--|--4-4-4-2-2-2-4-4-4-7-7-7---7-9-7-9-| 
C|--4-4-4-2-2-2-4-4-4--12-12-12--9-9-9--|--4-4-4-2-2-2-4-4-4-7-7-7---7-9-7-9-| 

Verso ('vive loco salta y grita sin parar')
D|----------------------------------------------------------------------| 
A|----------------------------------------------------------------------| 
F|-------------------7-7-7-7-7-7-7-7-------------------9-9-9-9-9-9-9-9--| 
C|--4-4-4-4-4-4-4-4--7-7-7-7-7-7-7-7--7-7-7-7-7-7-7-7--9-9-9-9-9-9-9-9--| x2
G|--4-4-4-4-4-4-4-4--5-5-5-5-5-5-5-5--7-7-7-7-7-7-7-7--7-7-7-7-7-7-7-7--| 
C|--4-4-4-4-4-4-4-4-------------------7-7-7-7-7-7-7-7-------------------| 
pm.....................................................................

('vuelve sentado en la puerta del tren' )
D|----------------------------------------------------------------------| 
A|----------------------------------------------------------------------| 
F|-------------------7-7-7-7-7-7-7-7-------------------9-9-9-9-9-9-9-9--| x2
C|--4-4-4-4-4-4-4-4--7-7-7-7-7-7-7-7--7-7-7-7-7-7-7-7--9-9-9-9-9-9-9-9--| 
G|--4-4-4-4-4-4-4-4--5-5-5-5-5-5-5-5--7-7-7-7-7-7-7-7--7-7-7-7-7-7-7-7--| 
C|--4-4-4-4-4-4-4-4-------------------7-7-7-7-7-7-7-7-------------------| 

Coro                  X3                    X1 
D|-------------------------------|---------------------------| 
A|-------------------------------|---------------------------| 
F|------------------7-7-7-7-9-9--|------------------7--------| 
C|--4-4-4-4-7-7-7-7-7-7-7-7-9-9--|--4-4-4-4-7-7-7-7-7-/------| 
G|--4-4-4-4-7-7-7-7-5-5-5-5-7-7--|--4-4-4-4-7-7-7-7-5-/------| 
C|--4-4-4-4-7-7-7-7--------------|--4-4-4-4-7-7-7-7---/------| 

('el vago')
D|--------------------------------------|------------------------------------| 
A|--------------------------------------|------------------------------------| 
F|--------------------------------------|------------------------------------| 
C|--4-4-4-2-2-2-4-4-4--12-12-12--9-9-9--|--4-4-4-2-2-2-4-4-4-7-7-7---7-9-7-9-| x2
G|--4-4-4-2-2-2-4-4-4--12-12-12--9-9-9--|--4-4-4-2-2-2-4-4-4-7-7-7---7-9-7-9-| 
C|--4-4-4-2-2-2-4-4-4--12-12-12--9-9-9--|--4-4-4-2-2-2-4-4-4-7-7-7---7-9-7-9-| 

break
la ultima vez sin el pm
D|-------------------------------|
A|-------------------------------|
F|------------------7-7-7-7-9-9--| x4
C|--4-4-4-4-7-7-7-7-7-7-7-7-9-9--|
G|--4-4-4-4-7-7-7-7-5-5-5-5-7-7--|
C|--4-4-4-4-7-7-7-7--------------|
pm................................

D|----------------------------------------------------------------------| 
A|----------------------------------------------------------------------| 
F|-------------------7-7-7-7-7-7-7-7-------------------9-9-9-9-9-9-9-9--| 
C|--4-4-4-4-4-4-4-4--7-7-7-7-7-7-7-7--7-7-7-7-7-7-7-7--9-9-9-9-9-9-9-9--| x4
G|--4-4-4-4-4-4-4-4--5-5-5-5-5-5-5-5--7-7-7-7-7-7-7-7--7-7-7-7-7-7-7-7--| 
C|--4-4-4-4-4-4-4-4-------------------7-7-7-7-7-7-7-7-------------------| 

Coro                  X3                    X1 
D|-------------------------------|---------------------------| 
A|-------------------------------|---------------------------| 
F|------------------7-7-7-7-9-9--|------------------7--------| 
C|--4-4-4-4-7-7-7-7-7-7-7-7-9-9--|--4-4-4-4-7-7-7-7-7-/------| 
G|--4-4-4-4-7-7-7-7-5-5-5-5-7-7--|--4-4-4-4-7-7-7-7-5-/------| 
C|--4-4-4-4-7-7-7-7--------------|--4-4-4-4-7-7-7-7---/------| 

('el vago')
D|--------------------------------------|------------------------------------| 
A|--------------------------------------|------------------------------------| 
F|--------------------------------------|------------------------------------| 
C|--4-4-4-2-2-2-4-4-4--12-12-12--9-9-9--|--4-4-4-2-2-2-4-4-4-7-7-7---7-9-7-9-| x2
G|--4-4-4-2-2-2-4-4-4--12-12-12--9-9-9--|--4-4-4-2-2-2-4-4-4-7-7-7---7-9-7-9-| 
C|--4-4-4-2-2-2-4-4-4--12-12-12--9-9-9--|--4-4-4-2-2-2-4-4-4-7-7-7---7-9-7-9-| 


Enviada por Sem inscrição
Nº de acordes: 0