Sem imagem

El Error

Carajo

100 exibições
El Error - Carajo
Intro 2 veces
  A5             A5
 e------------------------------
 b------------------------------
 g------------------------------
 d-2-2-2----------2-2-2---------
 a-0-0-0-3-3-2-2--0-0-0-3-3-2-2-
 E------------------------------
  C5             C5
 e------------------------------
 b------------------------------
 g------------------------------
 d-5-5-5----------5-5-5---------
 a-3-3-3-6-6-5-5--3-3-3-6-6-5-5-
 E------------------------------
  Verso 1:
     Esclava del error, la humanidad
 e--------------------------------------
 b--------------------------------------
 g--2-2-----2-----x-----2-2----2-----x--
 d--2-2-----2-----x-----2-2----2-----x--
 a--0-0-----0-----x-----0-0----0-----x--
 E--------------------------------------
  y por los siglos de los siglos estarás.
 e--------------------------------------
 b--------------------------------------
 g--5-5-----5-----x-----5-5----5----/9--
 d--5-5-----5-----x-----5-5----5-----x--
 a--3-3-----3-----x-----3-3----3-----x--
 E--------------------------------------
      Desigualdad,    desilusión,
 e--------------------------------------
 b--------------------------------------
 g--2-2-----2-----x-----2-2----2-----x--
 d--2-2-----2-----x-----2-2----2-----x--
 a--0-0-----0-----x-----0-0----0-----x--
 E--------------------------------------
  ha florecido la maldad de su ambición.
 e--------------------------------------
 b--------------------------------------
 g--5-5-----5-----x-----5-5----5-----x--
 d--5-5-----5-----x-----5-5----5-----x--
 a--3-3-----3-----x-----3-3----3-----x--
 E--------------------------------------
  Pre-Estribillo:
      Pariendo su ansiedad
 e------------------------------
 b------------------------------
 g------------------------------
 d-2-2-2----------2-2-2---------
 a-0-0-0-3-3-2-2--0-0-0-3-3-2-2-
 E------------------------------
       insiste en revelarse
 e------------------------------
 b------------------------------
 g------------------------------
 d-5-5-5----------5-5-5---------
 a-3-3-3-6-6-5-5--3-3-3-6-6-6-7-
 E------------------------------
       sufriendo al ignorar
 e------------------------------
 b------------------------------
 g------------------------------
 d-2-2-2----------2-2-2---------
 a-0-0-0-3-3-2-2--0-0-0-3-3-2-2-
 E------------------------------
   donde se esconde la verdad.
 e-------------------------------
 b-------------------------------
 g-------------------------------
 d-5---5---5---5---7---7---7---7-
 a-3---3---3---3---5---5---5---5-
 E-------------------------------
 Estribillo:
A5       C5            D5                   Bb5
 En cada falla abras dejado (En cada falla abras dejado)
A5      C5        D5                Bb5
 Un pedacito de terror (Un pedacito de terror)
A5      C5          Bb5
 Y continuamos lamentándonos, del error.

 Verso 2:
Quien nunca morirá es el error,
patina sobre el filo de la tentación,
si es bueno para mí, es malo para vos,
será que en un mismo lugar no caben dos

 Pre-Estribillo:
Cerrados al pensar,
que la verdad no existe,
dejamos la ilusión
llena de cicatrices

 Estribillo:
En cada falla abras dejado
(En cada falla abras dejado)
Un pedacito de terror
(Un pedacito de terror)
Y continuamos lamentándonos, del error.

  Am             C
 e-------------0--------------0-
 b-------0--1-----------0--1----
 g-----2--------------0---------
 d---2--------------2-----------    X2
 a-0--------------3-------------
 E------------------------------

  Am                C                D
     La vida endureció al tonto corazón
                   Bb
     llenándolo de espinas de valor.
  Am                  C               D
     el tiempo se esCapotraste por donde nadie vio
                      Bb
     y quiere dar la mano para vengarse
   A5          C5       D5           Bb5
     Vengarse...Vengarse…vengarse, VENGARCE!!

Estribillo:
En cada falla abras dejado
(En cada falla abras dejado)
Un pedacito de terror
(Un pedacito de terror)
En cada falla abras dejado
(En cada falla abras dejado)
Un pedacito de terror
(Un pedacito de terror)
 Un pedacito de terror

 e----------------------------
 b----------------------------
 g--2-2--2-2--2-2--2-2----/9--
 d--2-2--2-2--2-2--2-2-X4-----
 a--0-0--0-0--0-0--0-0--------
 E----------------------------

   Bb5    A5
  Lamentándonos (x4)

   Am             C
 e-------------0--------------0-
 b-------0--1-----------0--1----
 g-----2--------------0---------
 d---2--------------2-----------    X2
 a-0--------------3-------------
 E------------------------------

Un pedacito de terror...


Enviada por Sem inscrição
Nº de acordes: 8