Bee Gees

Stayin Alive

Bee Gees

10.120 exibições
Tom: Fm

e-----------------------------------------------
B-----------------------------------------------
G-----1----------------------------------1---3~-
D-1h3---1-----------1------1--------1--3--------
A-----------3---1h3----1h3-----1--3-------------
E-----------------------------------------------

e-----------------------------------------------
B-----------------------------------------------
G-----1----------------------------------1------
D-1h3---1-----------1------1--------1--3--------
A-----------3---1h3----1h3-----1--3-------------
E-----------------------------------------------

Verso 1:
                Fm                                                
    Well you can tell by the way I use my walk, 
           D#              Rm
    I`m a woman`s man, no time to talk.
     Fm                                    D#                  Fm
    Music loud and women warm, Iv`e been kicked around since I was born.
                  A#
    And now it`s alright, it`s ok, you may look the other way.
    We can try to understand the New York Times` effect on man.

Refrão:
  Fm
Whether your a brother or whether your a mother,
you`re stayin` alive, stayin` alive.
Feel the city breakin` and everybody shakin` ,
and we`re stayin` alive, stayin` alive.
Ah, ha, ha, ha, staying alive, staying alive, 
                          Fm D# Fm Cm        Fm
ah, ha, ha, ha, staying ali...........ve.

Verso 2:
             Fm                                   D#                 Fm
2. Well now, I get low and I get high, and If I can`t get either I really try.
             Fm                                                         
    Got the wings of heaven on my shoes, 
           D#                 Fm
    I`m a dancin` man and I just can`t lose.
                   A#
    You know it`s alright, it`s ok, I live to see another day.
    We can try to understand the New York Times` effect on man.

(Refrão)

Ponte:
  A#                                                        Fm
    Life going nowhere, somebody help me, somebody help me yeah.
 A#                                                        Fm
    Life going nowhere, somebody help me, yeah,  stayin`ali--ve.

(Verso 1)  

(Refrão)


Enviada por Sem inscrição
Correção por equipepegacifras
Nº de acordes: 4