Sem imagem

Minueto Em G (Sol)

Bach Cover

3.699 exibições
essa tablatura foi tirada de uma versão em guitarra acústica 
Pode estar com o tom modificado 
e|---------------------------0-1-------------------------------------------| 
B|-1-------1---------3---1-3--------------1--------------------------------| 
G|----0-2-3------------3----------------3---3-2-0-2-3-2-0--------0-2---2-0-| 
D|---3---------3-3-----------------3-3---------------------3-2-3-----3-----| 
A|-------------------------------------------------------------------------| 
E|-------------------------------------------------------------------------| 
 
e|---------------------------0-1-------------------------------------------| 
B|-1-------1---------3---1-3--------------1--------------------------------| 
G|----0-2-3------------3----------------3---3-2-0-2-3-2-0----0-2-0---------| 
D|---3---------3-3-----------------3-3---------------------3-------3-2-3---| 
A|-------------------------------------------------------------------------| 
E|-------------------------------------------------------------------------| 


Enviada por Sem inscrição
Nº de acordes: 0