Sem imagem

Só Mais Uma Vez

B5

955 exibições
Riff 1 (Intro)
           2X Veses
e|-----------------------------|
B|-----------------------------|
G|-6-6-6-6-6-6--7-6-4h6--------|
D|--3-3-3-3-3-3----------------|
A|-----------------------------|
E|-----------------------------|

Riff dos versos e do pré-refrão 4X Vezes
e|---------------------------------|
B|---------------------------------|                              
G|-6-6-6-6-6-6-6-6-6-6-6-6-6-6-4-4-|
D|--3-3-3-3-3-3-3-3-3-3-3-3-3-3-3-3|
A|---------------------------------|
E|---------------------------------|

Bb                C#
Parece Que Foi Ontem...
F#
Que Tudo Terminou...
Bb                C#
E Todo Tempo e Pouco...
F#
Nada Modificou...

Bb       C#         F#
E Então Ficou E Todo Aquele Instante Nada Se Explicou
Bb       C#         F#
E Então Pirou E Uma Parte Inteira Não Se Conformou

Refrão...

Bb       C#         F#
E Assim Pra Min Não Se Desfez... (Se Desfez)
Bb       C#         F#
O Fim Que Ainda e o Que Eu Não Sei...
Bb       C#         F#
Pra Sempre Eu Quis Te Ter... 

Só Mais Uma Vez...

Riff 1

Bb                C#
Olhando Nos Teus Olhos...
F#
Eu Pude Perceber...
Bb                C#
Quem Sabe Nos Teus Sonhos...
F#
Eu Posso Até Viver...

Refrão...

Bb       C#         F#                
E Então Ficou E Todo Aquele Instante Nada Se Explicou...
Bb       C#         F#
E Então Pirou E Uma Parte Inteira Não Se Conformou...

Refrão...

Bb       C#         F#
E Assim Pra Min Não Se Desfez... (Se Desfez)
Bb       C#         F#
O Fim Que Ainda e o Que Eu Não Sei...
Bb       C#         F#
Pra Sempre Eu Quis Te Ter Só Mais Uma Vez...

C# C C# F D# G# F# G# (Oitavadas)

Riff 1  1x

Refrão... 

Bb       C#         F#
E Assim Pra Min Não Se Desfez... (Se Desfez)
Bb       C#         F#
O Fim Que Ainda e o Que Eu Não Sei...
Bb       C#         F#
Pra Sempre Eu Quis Te Ter 

   Bb  C#     F#
5x Só Mais Uma Vez... Back 3x(Só Mais Uma Vez...)


Enviada por Sem inscrição
Nº de acordes: 7