Audioslave

Like A Stone

Audioslave

5.589 exibições
Tom: Gm

Intro: 
    Gm         Bb         F           Gm
e---------|----------|---------|---------------|
B---------|----------|---------|---------------|
G---------|----------|---------|------8-7------|
D--8------|--10------|------7--|---------------|
A-----10--|-------8--|---5-----|--6------------|
E---------|----------|---------|---------------|

(Gm  Bb   F  Gm)
On a cobweb, afternoon in a room
full of emptiness
By a freeway I confess
I was lost in the pages
Of a book, full of death
Reading how we'll die alone
And if we're good we'll lay to rest
Anywhere we want to go

Refrão:
Gm      Bb      F       Gm
In your house I long to be
Gm      Bb   F      Gm
Room by room patiently
     Eb           Gm
I'll wait for you there
F        Gm
Like a stone
     Eb           Gm
I'll wait for you there
 D (2x)    
Alone

(Intro)

(Gm  Bb   F  Gm)   
On my deathbed, I will pray 
To the gods and the angels
Like a pagan to anyone
Who will take me to heaven
To a place, I recall
I was there so long ago
The sky was bruised
The wine was bled
And there you led me on

(Refrão)

Solo:
    Gm     Bb    F           Gm    Gm      Bb   F       Gm
e|-------------------------------------------------------------------
B|--8--10--11~---13--11--10--8~----8---10--6----11--13--15-----------
G|-------------------------------------------------------------------
D|-------------------------------------------------------------------
A|-------------------------------------------------------------------
E|-------------------------------------------------------------------



    Eb                              Gm
e|--18(3x)--17(3x)------------------18(3x)--17(3x)-------------------
B|-----------------18(3x)--15(3x)-------------------18(3x)--15(3x)---
G|-------------------------------------------------------------------
D|-------------------------------------------------------------------
A|-------------------------------------------------------------------
E|-------------------------------------------------------------------
 
    F                               Gm   
e|--18(3x)--17(3x)------------------18(3x)--17(3x)-------------------
B|-----------------18(3x)--15(3x)-------------------18(3x)--15(3x)---
G|-------------------------------------------------------------------
D|-------------------------------------------------------------------
A|-------------------------------------------------------------------
E|-------------------------------------------------------------------
    Eb               Gm              D7
e|-------------------------------15--17-18--17--18--17~---------------
B|---------------13--15--16--18---------------------------------------
G|--12--14--15--------------------------------------------------------
D|--------------------------------------------------------------------
A|--------------------------------------------------------------------
E|--------------------------------------------------------------------

Eb       Bb
And on I read
   D7              Eb  
Until the day was gone
      D#m      C7
And I sat in regret
   D7                  Gm
Of all the things I've done
    Eb              Bb
For all that I've blessed
     D7              Eb
And all that I've wronged
   D#m             C7
In dreams until my death
              D7
I will wander on

(Refrão)


Enviada por Sem inscrição
Correção por equipepegacifras
Nº de acordes: 8