Sem imagem

You Give Love A Band Name

Atreyu

124 exibições
(Cover)

//// - Pick Scrape
/ - Slide
* - Pinch Harmonic
() - Bend
h - Hammer-on
p - Pull-off

Pré-Verso

(Solo)
|-------------------------------------------------------------|-------|-----------------|
|-------------------------------------------------------------|-------|-----------------|
|----10-(12)-10-8-10(12)p-8--------810-10-(12)-810(12)p8------|-------|----10-(12)--10--|
|---------------------------10-------------------------h10----|--(x2)-|-----------------|
|-------------------------------------------------------------|-------|-----------------|
|-------------------------------------------------------------|-------|-----------------|

(Ritmo)
|--------------------------------|---------|-----------|
|--------------------------------|---------|-----------|
|-----------------------8--------|---------|-----------|
|----10-6--8-1010--6-8--8-10-----|--(x2)---|----6--8---|
|----10-6--8-1010--6-8--6-10-----|---------|----6--8---|
|----10-6--8-1010--6-8----10-----|---------|----6--8---|

(Ritmo)
|--------------------------------------------------------------------------|
|--------------------------------------------------------------------------|
|--------------------------------------------------------------------------|
|----------11-------------11---------------11--------------11--------------|  (x2)
|--11--33-----33--11--33------3~~--11--33------33--11--33--------3*--------|
|--------------------------------------------------------------------------|

(Solo)
|----------------------------------------------------------------------------(W)--|
|----------------------------------------------------------------------------(H)--|
|----------------------------------------------------------------------------(A)--|
|-------------------------------------------------------------------------88-(M)--|
|-------------------------------------------------------------------------88-(M)--|
|----------------------------------------------------------------------------(Y)--|

Pré-refrão

(Solo)
|---------------(W)--------------------------------------------|
|---------------(H)--------------------------------------------|
|---------------(A)---------------------3--------------5-------|
|--3--------xx66(M)----3-------------3--------------5----------|
|--3--------xx66(M)----3----------1-------------3--------------|
|--3------------(Y)----3-------3------------5------------------|

(Ritmo)
|-----------------------------------------------------------------------------------------|
|-----------------------------------------------------------------------------------------|
|-------------------------------------------------------------------3----------------5----|
|--3------------11----------------11-----------3----------------3-----------------5-------|
|--3----11--33-------33--11--33--------3~~-----3-------------1----------------3-----------|
|--3-------------------------------------------3--------3------------------5--------------|

Refrão

(Solo)
|---8---|
|---8---|
|---5---|    (toque repetidamente até o terceiro "You give love a bad name")
|---5---|
|-------|
|-------|

(Ritmo)
|--------------------------------|---------|------------|
|--------------------------------|---------|------------|
|-----------------------8--------|---------|------------|
|----10-6--8-1010--6-8--8-10-----|--(x2)---|----6--8----|
|----10-6--8-1010--6-8--6-10-----|---------|----6--8----|
|----10-6--8-1010--6-8----10-----|--------|-----6--8----|

Pré-Verso 2

(Rhythm)
|-------------------------------------------------------------|-------------------|
|-------------------------------------------------------------|-(Both Guitars)----|
|----------11-------------11---------------11--------------11-|--00--0--0--0-0----|
|--11--33------33--11--33-----3~~--11--33------33--11--33-----|--00--0--0--0-0----|
|-------------------------------------------------------------|--00--0--0--0-0----|

Verso 2

(Solo)
|----------------------------------------------|
|----------------------------------------------|
|----------------------------------------------|
|--0000-10--0000-00--0000-10--0000-------------|    (x2)
|--0000-10--0000-00--0000-10--0000-/1212-8-----|
|--0000-10--0000-00--0000-10--0000-------------|

(Ritmo)
|------------------------------------------|-----------------------------------------------------------------|
|------------------------------------------|-----------------------------------------------------------------|
|------------------------------------------|-----------------------------------------------------------------|
|--0000-10--0000-00--0000-10--0000---------|--------11---------------11-----------------11-------------11----|
|--0000-10--0000-00--0000-10--0000-/1212-8-|11--33-------33--11--33--------3~~--11--33------33--11--33-----3*|
|--0000-10--0000-00--0000-10--0000---------|-----------------------------------------------------------------|

Pré-refrão

refrão

Solo (tocado em cima do ritmo do refrão)

|----------------------------------------------------------------|
|----------------------------------------------------------------|
|------------------------------------7/9-9/1012-12/14-17-19-19//-|
|--10--(12--12-12)-10p8-10---------------------------------------|
|---------------------------10-------5/7-7/8-10-10/12-15-17-17//-|
|----------------------------------------------------------------|

(Slide Tapping)
 hphphphphphphphphphphphphphphphphphphphphphp
|----------------------------------------------------/|--8---10----|
|8-11/811/811/811/811/811/811/811/811/811/811/811/8-/-|(11)-(13)---|
|--------------------------------------------------/--|(Unison)----|
|-------------------------------------------------/---|(Bends )----|
|------------------------------------------------/----|------------|

Palm Mute
.............................................................
|-----------------------------------------------------|
|-----------------------------------------------------|
|-----------------------------------------------------|
|-----------1------------1----------------------------|
|-3-1---1-3---3-1---1-3-------------------------------|
|-----3-----------3---------3-------------------------|

Refrão (Vocais e bateria)

|--/////////////////////////////////////////--|
|--/////////////////////////////////////////--|
|--/////////////////////////////////////////--|
|--/////////////////////////////////////////--|
|--/////////////////////////////////////////--|
|--/////////////////////////////////////////--|

Chorus

Post-Chorus

(Solo)
|----------------------------------------------------------------|
|----------------------------------------------------------------|
|----10*(12)-10-8-10(12*)p-8--------810-10*(12*)-810(12*)p8------|
|---------------------------10-----------------------------h10---|
|----------------------------------------------------------------|
|----------------------------------------------------------------|

|----------------------------------------------------------------|
|------------------------------------------11--------------------|
|----10*(12)-10-8-10(12*)p-8--------810/12----10-810(12*)p8------|
|---------------------------10----------------------------h10----|
|----------------------------------------------------------------|
|----------------------------------------------------------------|

(Ritmo)
|----------------------------------------------------|
|----------------------------------------------------|
|----------------------------------------------------|
|---000-0-0----000-0-0----000-0-0----000-0-0---------|  (x2)(na segunda vez as duas guitarras tocam)
|---000-0-0----000-0-0----000-0-0----000-0-0/1212-8--|
|---000-0-0----000-0-0----000-0-0----000-0-0---------|



Enviada por Sem inscrição
Nº de acordes: 0