Sem imagem

Untitled Finale

Atreyu

120 exibições
Tuning: C-G-C-F-A-D 
 
x=palm mute 
b=bend 
*=pinch harmonic 
(x)=how many times to play it 
 
Intro: 
Guitar 1 
|---------------------------|----------------------| 
|---------------------------|----------------------| 
|5-------12-------9---------|9-------7-------5-----| 
|x-(x12)--x-(x4)--x--(x16)--|x-(x4)--x-(x4)--x-(x8)| 
|3-------10-------7---------|7-------5-------3-----| 
|---------------------------|----------------------| (x2) 
(This part x2) 
Guitar 2 
|-------------------------------| 
|-------------------------------| 
|-------------------------------| 
|3-------7-------0-------3------| 
|3-(x16)-7-(x16)-0-(x16)-3-(x16)| 
|3-------7-------0-------3------| (x2) 
(Not very sure on the rythm, this is my best guess) 
 
Pre-Verse: 
 
Guitar 1 & 2 
|----------------| 
|----------------| 
|---------7------| 
|3--------7-(x16)| 
|3-(x16)--5------| 
|3--------5------| 
 
Verse 1: 
 
Guitar 1 & 2 
|----------------------------------------------------------| 
|----------------------------------------------------------| 
|----------------------------------------------------------| 
|------------------------------------10-10-----9-9-9-------| 
|----------------------------------------------------------| 
|3-0-xx-3-0-xx-3-0-xx--0--0--0-x-x-x-------x-x--------0-2-3| (x4) 
 
Chorus: (Repeat Intro) 
 
Verse 2: 
 
Guitar 1 
|------------------------------------------------------------| 
|------------------------------------------------------------| 
|------------------------------------------------------------| 
|------------------------------------------------------------| 
|------------------5----------3/5-5/7---------7-7-3-3-5-5----| 
|0-xxxxxxx--3b---0---0-xxxxxxx----------7-5/7-7-7-3-3-5-5-3b*| (x3) 
(On 4th time Guitar 1 plays the same thing as Guitar 2) 
 
Guitar  
|------------------------------------------------------------| 
|------------------------------------------------------------| 
|------------------------------------------------------------| 
|------------------------------------------------------------| 
|------------------5----------3/5-5/7---------7-7-3-3-5-5-1-1| 
|0-xxxxxxx--3b---0---0-xxxxxxx----------7-5/7-7-7-3-3-5-5-1-1| (x4) 
 
Then this part: 
 
Guitar 1 
|---------------------------------------------------| 
|---------------------------------------------------| 
|----7-----------7------5------10-----------10------| 
|----x-(x14)-----x-(x6)-x-(x2)--x-(x14)------x-(x8)-| 
|x-x-5-------x-x-5------3-------8-------x-x--8------| 
|x-x---------x-x------------------------x-x---------| 
 
Guitar 2 
|-----------------------------------------------------------| 
|-----------------------------------------------------------| 
|----7-----------7------9-----------------------------------| 
|----x-(x14)-----x-(x6)-x-(x2)--0-(x14)------0-(x8)---------| 
|x-x-5-------x-x-5------7-------0-------x-x--0------xxxxxxxx| 
|x-x---------x-x----------------0-------x-x--0------xxxxxxxx| 
 
 
Guitar 1 
|---------------------------------------------------| 
|---------------------------------------------------| 
|----7-----------7------5------10-----------10------| 
|----x-(x14)-----x-(x6)-x-(x2)--x-(x14)------x-(x8)-| 
|x-x-5-------x-x-5------3-------8-------x-x--8------| 
|x-x---------x-x------------------------x-x---------| 
 
Guitar 2 
|-----------------------------------------------------------| 
|-----------------------------------------------------------| 
|----11----------11-----9-----------------------------------| 
|----x-(x14)-----x-(x6)-x-(x2)--0-(x14)------0-(x8)---------| 
|x-x-9-------x-x-9------7-------0-------x-x--0------xxxxxxxx| 
|x-x---------x-x----------------0-------x-x--0------xxxxxxxx| 
 
Guitar 1 & 2 
|-----------------------------| 
|-----------------------------| 
|-----------------------------| 
|-----------------------------| 
|0-x-0-x----------------------| 
|0-x-0-x-x-x-x-x-x-x-x-x-x-x-x| (x4) 
 
Guitar 1 & 2 
|----------------------------------| 
|----------------------------------| 
|11-------7--------10-------7------| 
|x-(x16)--x-(x16)--x-(x16)--x-(x16)| 
|9--------5--------8--------5------| 
|----------------------------------| 
 
Guitar 1 
|----------------------------------------------------------| 
|----------------------------------------------------------| 
|11-------7-------9------10--------10-------3-------5------| 
|x-(x16)--x-(x8)--x-(x4)--x-(x4)---x-(x16)--x-(x8)--x-(x8)-| 
|9--------5-------7-------8--------8--------1-------3------| 
|----------------------------------------------------------| 
 
Guitar 2 
|----------------------------------------------------------| 
|----------------------------------------------------------| 
|----11----------7------9------10-------------10-----------| 
|0-0-x-(x12)-0-0-x-(x4)-x-(x4)--x-(x4)-1-1-1---x-(x12)---0-| 
|0-0-9-------0-0-5------7-------8------1-1-1---8---------0-| 
|0-0---------0-0-----------------------1-1-1-------------0-| 
 
Outro: 
 
Guitar 1: 
|--------------------------------------------------------| 
|--------------------------------------------------------| 
|11-------7-------9------10--------10-------3------5-----| 
|x-(x16)--x-(x8)--x-(x4)--x-(x4)---x-(x16)--x-(x8)-x-(x8)| 
|9--------5-------7-------8--------8--------1------3-----| 
|--------------------------------------------------------| (x?)



Enviada por Sem inscrição
Nº de acordes: 0