Athlete

You Got The Style

Athlete

86 exibições
Tom: F#m

 F#m  E  D  B  C#
e-9------2--2--4--------------------|
B-10--9--3--3--5--------------------|
G-11--9--2--4--6--------------------|
D-11--9--0--4--6--------------------|
A-9---7-----2--4--------------------|
E-----------------------------------|

Verse
F#m          E
Oh no, i've gone and put my foot in it again

Chorus
F#m               E            Bm                       D
Oh, it's getting hot in here, must be something in the atmosphere

Bridge
F#m                   E
You got the style and we got the style

Bm                     C#m
They got the style and everybody's got it

Little bit before solo is simply: F#m, E

Solo  x4
e------------------------------------------------|
B------------------------------------------------|
G-----------------------------------------9------|
D-12-12-12-12-12-12-12-12-12-11-9-7--11-9---9----|
A------------------------------------------------|
E------------------------------------------------|

the end
jonny b x


Enviada por Sem inscrição
Nº de acordes: 7