Alter Bridge

Rise Today (Acústico)

Alter Bridge

1.719 exibições
Afinação: Drop D 
         (D A D G B e)

Tom: D

Intro / Verso 1:
  
  D9              D9/F            D9/C  
e---------------------------------------------------
B-------3-------3-------3-------3-------3-------3---
G-----2-------2-------2-------2-------2-------2-----
D---0-------0-------0-------0-------0-------0-------
A---------------------------------3-------3---------
D-0-------0-------3-------3-------------------------

  G         F
e--------------------------------------------------|
B--------------------------------------------------|
G-------0-------0----------------------------------|
D-----0---0---0---0--------------------------------|
A--------------------------------------------------|
D-3/5-------3--------------------------------------|

Verso 1:
D9              D9/F
  The wind is blowing cold
         D9/C       
Have we lost our way tonight?
         G        F
Have we lost our hope to sorrow?

D9                D9/F
  Feels like were all alone
         D9/G 
Running further from what´s right
               G       F         D9   D9/F   D9/C   G   F
And there are no more heroes to follow

Pré-Refrão:
             F5
So what are we becoming?
           G5
Where did we go wrong?

Refrão:
 D9
Yeah
 C9
Yeah
           G5     F5       G5     F5  D9
I want to rise today and change this world
 D9
Yeah
 C9
Yeah
              G5     F5       G5     F5  D9
Oh won´t you rise today and change this world?

  D9
e-------0--------------------------------------------
B-----3----------------------------------------------
G---2------------------------------------------------
D-0----------------------------------------(7x)------
A----------------------------------------------------
D----------------------------------------------------

Verso 2:
D5          F5
The sun is beating down
       C5
Are we ever gonna change
         F5^G5              D5   F5   C5   F5^G5
Can we stop the blood from running?

D5            F5
 Our time is running out
      C5
Hope we find a better way
           F5^G5                D5   F5   C5   F5^G5
Before we find we´re left with nothing

Pré-Refrão:
           F5
For every life that´s taken
         G5
So much love is wasted

Refrão:
 D9
Yeah
 C9
Yeah
           G5     F5       G5     F5  D9
I want to rise today and change this world
 D9
Yeah
 C9
Yeah
              G5     F5       G5  
Oh won´t you rise today and change

Ponte:
      A#5
This world
G4    G
Only love
            D9
Can set it right
      A#5
This world
   G4    G
If only peace
             D9
Would never die

 A#5                            G4      G
Seems to me that we´ve got each other wrong
 A#5                            G4    G
Was the enemy just your brother all along?

Refrão:
 D9
Yeah
 C9
Yeah
           G5     F5       G5     F5  D9
I want to rise today and change this world
 D9
Yeah
 C9
Yeah
              G5     F5       G5     F5  D9
Oh won´t you rise today and change this world? (4x)

(D9    C9     G5 F5   G5 F5 D9)


Enviada por Sem inscrição
Nº de acordes: 16