Alpha Blondy

Massada

Alpha Blondy

1.413 exibições
Tablatura:
|     Am      Am      G       G   |     Am      Am      G       G   |
|---------------------------------|---------------------------------|
|---------------------------------|---------------------------------|
|-------------------------2h3h5---|---------------------------------|
|-5-------------------------------|-5-5-----------------------------|
|     Am      G       F       Em  |     Am      Am      G       G   |
|-5h4p5---4h2p4---2h0p2-----------|---------------------------------|
|-------------------------5h2p5---|---------------------------------|
|------------------------------3-5|-------------------------------5-|
|---------------------------------|-5-5-------------3-3-3-3-3-------|


Enviada por Sem inscrição
Nº de acordes: 4