Sem imagem

Salmo 23

Acesso

980 exibições
Tom: Dm
Intr: Dm  (D4 Dm D9 Dm D9 Dm)

Dm                       F
O centro do universo, um ser superior 
     A#                       G
No fundo um egoísta que não pode aceitar 
     Dm                        F
Que poder da sua mente e o seu deus inventado 
     A#                    G
Não podem resolver seu problema interior 
Dm                F
Tudo é nova era, só superstição 
      A#        G
E num 0900 você busca direção 


A#        G           Dm
   É incapaz de acreditar
Que cartas búzios e taros
A#           G                  Dm
   Homens estátuas, magos e cristais
A
Não podem ajudar

      A#          Am
Tudo bem só não pense 
   Dm        F
Em recorrer desta vez 
   A#          Am       Dm     F
A uma Bíblia aberta no Salmo 23
      A#          Am
Tudo bem só não pense 
   Dm                F
Em resolver seus problemas de uma vez
A#                Am       Dm     F
  Com uma Bíblia aberta no Salmo 23
A#   A   G
        Salmo 23


 -- Dm  F  A#  G

       Dm                      F
Quando quer ver o futuro você compra um jornal
   A#                     G
Horóspoco diário: seu destino a um real
      Dm                    F
Pensamentos positivos pra ficar em alto astral
A#                  G
Livro esotéricos, lavajem cerebral
     Dm                    F
Profecias sem mistério, a Bíblia deturpada
       A#                      G
Um conjunto de mentiras, distorção deliberada


A#        G           Dm
   É incapaz de acreditar
Que Orixás, santos e nem Alá
A#        G                  Dm
     Penitencias, velas e terços
A
Não podem salvar


      A#          Am
Tudo bem só não pense 
   Dm        F
Em recorrer desta vez 
   A#          Am       Dm     F
A uma Bíblia aberta no Salmo 23
      A#          Am
Tudo bem só não pense 
   Dm                F
Em resolver seus problemas de uma vez
A#                Am       Dm     F
  Com uma Bíblia aberta no Salmo 23
A#   A   G
        Salmo 23

 --- Solo
     Dm (F)                    A#                             G
E |-------------------------|------------------------------------------------|
B |-----10-----10------10---|------13----------------------------------------|
G |:-12/----12/----12/-----:|--12/-----12/^12--12-10-12-10-12/--12-10-12~~---|
D |:-----------------------:|------------------------------------------------|
A |-------------------------|------------------------------------------------|
E |-------------------------|------------------------------------------------|

     Dm                F                 A#            G
E |--------------------------------------------------------------------------|
B |--------------------------------------------------------------------------|
G |--------------------------------------------------------------------------|
D |---------------10~--------------------------------------------------------|
A |-------8-10^12-----------8-10^12-10---8-------------8-10^12-10------------|
E |--8-10--------------8-10------------------10---8-10-----------------------|

     Dm                F               A
E |--------------------------------------------------------------------------|
B |--1^3-5-6--5-6-6^8--6-5-6-5---5-------------------------------------------|
G |----------------------------7---7---3-2-0-3-2-0-3-0-3^5~-5^9~--10---------|
D |--------------------------------------------------------------------------|
A |--------------------------------------------------------------------------|
E |--------------------------------------------------------------------------|


      A#          Am
Tudo bem só não pense 
   Dm        F
Em recorrer desta vez 
   A#          Am       Dm     F
A uma Bíblia aberta no Salmo 23
      A#          Am
Tudo bem só não pense 
   Dm                F
Em resolver seus problemas de uma vez
A#                Am       Dm     F
  Com uma Bíblia aberta no Salmo 23
    A#          Am
A palavra só é poder
   Dm       F
Na vida daquele que crer
A#       Am  Dm         F
   Em Jesus, o Filho de Deus
A#   A   G
        o Filho de Deus


 --- Cita o "Salmo 23" tocando...

G |----7-7-7--5-5-5--3-3-3--2-2-2------------------------|
D |----0-0-0--0-0-0--0-0-0--0-0-0------------------------|


Enviada por Sem inscrição
Nº de acordes: 8