3 Doors Down

Landing In London

3 Doors Down

4.282 exibições
Tom: Em

Intro: 
  Em                    Em
e---------------------------------------------------
B-------1-----0---------------1-----0---------------
G-----------------2h4-0-----------------2-2h4-------
D-----2-----2---------------2-----2-----------------
A---2-----2---------------2-----2-------------------
E-0-------------0-------0-------------0-------------


Verso 1:
  Em           G                A9   
e---------------------------------------------------
B--------------------0----------------0-------------
G-------0----------0---0------------2---2---------0-
D-----2---2------0----------------2-----------0h2---
A---2-----------------------2b--0---------0h2-------
E-0---------0--3---------3--------------------------

  Em
e---------------------------------------------------
B---------------------------------------------------
G-------0-------------0-----------------------------
D-----2---2-------0h2-------------------------------
A---2---------0h2-----------------------------------
E-0---------0---------------------------------------

  Em           G                A9   
e---------------------------------------------------
B--------------------0----------------0-------------
G-------0----------0---0------------2---2---------0-
D-----2---2------0----------------2-----------0h2---
A---2-----------------------2b--0---------0h2-------
E-0---------0--3---------3--------------------------

  Em
e---------------------------------------------------
B---------------------------------------------------
G-------0-------------0-----------------------------
D-----2---2-------0h2-------------------------------
A---2---------0h2-----------------------------------
E-0---------0---------------------------------------


Pré-Refrão 1:
  Em                 C
e---------------------------------------------------
B--------------------------1-----0------------------
G-------0---------0------0---0-----0---2------------
D-----2---2-----2------2-------2-----2--------------
A---2---------2------3------------------------------
E-0---------0---------------------------------------

  D9          D     D4 Em
e-------0-----2-----3-------------------------------
B-----3---3-----3-----------------------------------
G---2-------2-----2----------0-------------0--------
D-0------------------------2---2-------0h2----------
A------------------------2---------0h2--------------
E----------------------0---------0------------------

  Em                 C
e---------------------------------------------------
B--------------------------1-----0------------------
G-------0---------0------0---0-----0---2------------
D-----2---2-----2------2-------2-----2--------------
A---2---------2------3------------------------------
E-0---------0---------------------------------------

  D9          D     D4 Em
e-------0-----2-----3-------------------------------
B-----3---3-----3-----------------------------------
G---2-------2-----2----------0-------------0--------
D-0------------------------2---2-------0h2----------
A------------------------2---------0h2--------------
E----------------------0---------0------------------


Refrão 1:
  Em                 C                
e--------------------0-0-0-0-0-0-0-0----------------
B--------------------1-1-1-1-1-1-1-1----------------
G-------0---------0--0-0-0-0-0-0-0-0----------------
D-----2---2-----2----2-2-2-2-2-2-2-2----------------
A---2---------2------3-3-3-3-3-3-3-3----------------
E-0---------0---------------------------------------
                            

  A9               Em
e-0-0-0-0-0-0-0-0--0-0-0-0--------------------------
B-0-0-0-0-0-0-0-0--0-0-0-0--------------------------
G-2-2-2-2-2-2-2-2--0-0-0-0----------0---------------
D-2-2-2-2-2-2-2-2--2-2-2-2------0h2-----------------
A-0-0-0-0-0-0-0-0--2-2-2-2--0h2---------------------
E------------------0-0-0-0--------------------------
              

  Em               C   D9
e-0-0-0-0-0-0-0-0--0---0----------------------------
B-0-0-0-0-0-0-0-0--1---3----------------------------
G-0-0-0-0-0-0-0-0--0---2----------------------------
D-2-2-2-2-2-2-2-2--2---0----------------------------
A-2-2-2-2-2-2-2-2--3--------------------------------
E-0-0-0-0-0-0-0-0-----------------------------------
              


Verso 2:
  Em           G                A9   
e---------------------------------------------------
B----------------------0--------------0-------------
G-------0------0-----0---0----------2---2---------0-
D-----2---2---2----0--------------2-----------0h2---
A---2--------2---------------2b-0---------0h2-------
E-0---------0----3---------3------------------------

  Em
e---------------------------------------------------
B---------------------------------------------------
G-------0-------------0-----------------------------
D-----2---2-------0h2-------------------------------
A---2---------0h2-----------------------------------
E-0---------0---------------------------------------

  Em           G                A9   
e---------------------------------------------------
B----------------------0--------------0-------------
G-------0------0-----0---0----------2---2---------0-
D-----2---2---2----0--------------2-----------0h2---
A---2--------2---------------2b-0---------0h2-------
E-0---------0----3---------3------------------------

  Em
e---------------------------------------------------
B---------------------------------------------------
G-------0-------------0-----------------------------
D-----2---2-------0h2-------------------------------
A---2---------0h2-----------------------------------
E-0---------0---------------------------------------


Pré-Refrão 2:
  Em                 C                
e--------------------0-0-0-0-0-0-0-0----------------
B--------------------1-1-1-1-1-1-1-1----------------
G-------0---------0--0-0-0-0-0-0-0-0----------------
D-----2---2-----2----2-2-2-2-2-2-2-2----------------
A---2---------2------3-3-3-3-3-3-3-3----------------
E-0---------0---------------------------------------
                            

  A9               Em
e-0-0-0-0-0-0-0-0--0-0-0-0--------------------------
B-0-0-0-0-0-0-0-0--0-0-0-0--------------------------
G-2-2-2-2-2-2-2-2--0-0-0-0----------0---------------
D-2-2-2-2-2-2-2-2--2-2-2-2------0h2-----------------
A-0-0-0-0-0-0-0-0--2-2-2-2--0h2---------------------
E------------------0-0-0-0--------------------------
              

  Em               C                 
e-0-0-0-0-0-0-0-0--0-0-0-0-0-0-0-0------------------
B-0-0-0-0-0-0-0-0--1-1-1-1-1-1-1-1------------------
G-0-0-0-0-0-0-0-0--0-0-0-0-0-0-0-0------------------
D-2-2-2-2-2-2-2-2--2-2-2-2-2-2-2-2------------------
A-2-2-2-2-2-2-2-2--3-3-3-3-3-3-3-3------------------
E-0-0-0-0-0-0-0-0-----------------------------------
                     
  
  D9               Em      
e-0-0-0-0-0-0-0-0--0-0-0-0-0-0-0-0------------------
B-3-3-3-3-3-3-3-3--0-0-0-0-0-0-0-0------------------
G-2-2-2-2-2-2-2-2--0-0-0-0-0-0-0-0------------------
D-0-0-0-0-0-0-0-0--2-2-2-2-2-2-2-2------------------
A------------------2-2-2-2-2-2-2-2------------------
E------------------0-0-0-0-0-0-0-0------------------
                   


Refrão 2:
  Em               C                 
e-0-0-0-0-0-0-0-0--0-0-0-0-0-0-0-0------------------
B-0-0-0-0-0-0-0-0--1-1-1-1-1-1-1-1------------------
G-0-0-0-0-0-0-0-0--0-0-0-0-0-0-0-0------------------
D-2-2-2-2-2-2-2-2--2-2-2-2-2-2-2-2------------------
A-2-2-2-2-2-2-2-2--3-3-3-3-3-3-3-3------------------
E-0-0-0-0-0-0-0-0-----------------------------------
                     

  A9               Em
e-0-0-0-0-0-0-0-0--0-0-0-0--------------------------
B-0-0-0-0-0-0-0-0--0-0-0-0--------------------------
G-2-2-2-2-2-2-2-2--0-0-0-0----------0---------------
D-2-2-2-2-2-2-2-2--2-2-2-2------0h2-----------------
A-0-0-0-0-0-0-0-0--2-2-2-2--0h2---------------------
E------------------0-0-0-0--------------------------
              

  Em               C                D9
e-0-0-0-0-0-0-0-0--0-0-0-0-0-0-0-0--0---------------
B-0-0-0-0-0-0-0-0--1-1-1-1-1-1-1-1--2---------------
G-0-0-0-0-0-0-0-0--0-0-0-0-0-0-0-0--3---------------
D-2-2-2-2-2-2-2-2--2-2-2-2-2-2-2-2--0---------------
A-2-2-2-2-2-2-2-2--3-3-3-3-3-3-3-3------------------
E-0-0-0-0-0-0-0-0-----------------------------------
                    

  Em               Em                 
e-0-0-0-0-0-0-0-0--0-0-0-0-0-0-0-0------------------
B-0-0-0-0-0-0-0-0--0-0-0-0-0-0-0-0------------------
G-0-0-0-0-0-0-0-0--0-0-0-0-0-0-0-0------------------
D-2-2-2-2-2-2-2-2--2-2-2-2-2-2-2-2------------------
A-2-2-2-2-2-2-2-2--2-2-2-2-2-2-2-2------------------
E-0-0-0-0-0-0-0-0--0-0-0-0-0-0-0-0------------------
                     



Verso 1:
Em                     G
   I woke up today in London
A9                            Em
   As the plane was touching down
Em                                  G
   And all I could think about was Monday
A9                Em
   Maybe I´d be ba...ck around

Pré-Refrão 1:
Em                            C
   If this keeps me way much longer
D9                            Em
   I don´t know what I would do
Em                                  C
   You´ve got to understand it´s a hard life,
D9               Em
   That I´m going through

Refrão 1:
Em                               C
   And when the night falls in around me
A9                                   Em
   And I don´t think I´ll make it through
Em                                   C
   I´ll use your light to guide the way
D9                              (Intro)
   ´Cause all I think about is you

Verso 2:
Em                               G
   And L.A. is getting kind of crazy
A9                                  Em
   And New York is getting kind of cold 
Em                              G
   I keep my head from getting lazy
A9                                Em
   I just can´t wait to get back home 

Pré-Refrão 2:
Em                            C
   And all these days I spend away
A9                       Em
   I´ll make up for this I swear
Em                        C
   I need your love to ho...ld me up
D9                           Em
   When it´s all to much to bear

Refrão 2:
Em                               C
   And when the night falls in around me
A9                                   Em
   And I don´t think I´ll make it through
Em                                   C
   I´ll use your light to guide the way
D9                              Em  Em
   ´Cause all I think about is you

Solo:
(C  A9  Em  Em)
(C  D9  Em  Em)

e---------------------------------------------------
B----------------------------7h8-8/10--10/12--------
G------------------------7h9------------------------
D-------5h7-7/9-9-9--7h9----------------------------
A-3-5h7---------------------------------------------
E---------------------------------------------------

e---0-------0-------0------------------------0----0-
B-5---5-5/7---7-7/8---8-8h10--10-10/12-10b12---10---
G---------------------------------------------------
D---------------------------------------------------
A---------------------------------------------------
E---------------------------------------------------

e----------------0-----0-------------0---0----0---0-
B-10-10h12-10b12---10~---10h12/17-17--17---17---17--
G---------------------------------------------------
D---------------------------------------------------
A---------------------------------------------------
E---------------------------------------------------

e----0----------------------------------------------
B-17---17-17-15-13-15-13-12-13-12-10-12-10----------
G---------------------------------------------------
D------------------------------------------12-12/14-
A---------------------------------------------------
E---------------------------------------------------

Pré-Refrão 3:
Em                            C
   And all these days I spend away
A9                       Em
   I´ll make up for this I swear
                     C
I need your love to hold me up
D9                           Em
   When it´s all to much to bear

Refrão 3:
Em                               C
   And when the night falls in around me
A9                                   Em
   And I don´t think I´ll make it through
                                  C
I´ll use your light to guide the way
D9                              (Intro)
   ´Cause all I think about is you


Enviada por mauricio_lg
Nº de acordes: 10